Oops, an error
Loading. Please wait.

The Return Of Captain Eo Tab

version 2
version 2

Whole song

Interactive

1,371 views 1 this week
1 commentread comment
1 2 3 4 5
please rate
add to favorites
launch autoscroll
font size
0
reset
how to read this tab
guitar tuner
Tab Pro tools
  • play this tab
  • loop segment
  • change instrument
  • show fretboard
  • metronome
×
Best way to learn
"The Return Of Captain Eo"
Autoscroll
slow
fast
+/-
esc
set tempo
stop
Difficulty
intermediate
I saw this song wasn't on here
so I decided to tab it. I have a 
YouTube channel called MrBucketBot 
and I'm gonna post a cover of this song on there. 
So yeah, here's the tab.

The quiet intro is the same riff
as this so I didn't put it in.
E---------------------------|
B---------------------------|
G---------------------------|
D-------------------------8-|
A---------4----6^(6)-4-6/8--|
E4-6-4-6----6---------------|

---------------------------------------------|
---------------------------------------------|
---------------------------------------------|
---------------------------------------------|
---------4----6^(6)-4-6/8--------4-4-5-6-4^--|
4-6-4-6----6-------------4--5--6-----------6-|

---------------------------|
---------------------------|
---------------------------|
-------------------------8-|
---------4----6^(6)-4-6/8--|
4-6-4-6----6---------------|

-----------------------------------|
-----------------------------------|
-----------------------------------|
-----------------------------------|
---------4----6^(6)-4-6/8--------4-|
4-6-4-6----6-------------4--5--6---|

-------------------------|-------------------------|
-------------------------|-------------------------|
-------------------------|-------------------------|
-------------------------|-------------------------|
6p4---4---6p4---4--------|6p4---4---6p4---4--------|
----6---------6-----4-5-6|----6---------6-----4-5-6|

-------------------------|--------------------------------------|
-------------------------|--------------------------------------|
-------------------------|--------------------------------------|
-------------------------|--------------------------------------|
6p4---4---6p4---4--------|6p4---4---6p4---4----------4-4-5-6-4^-|
----6---------6-----4-5-6|----6---------6----4--5--6-----------6|

------------------------------|
------------------------------|
------------------------------|
----8---6-(6)-----------------|
--------------6-7-6----6-7-6--|
6--(6)--------------8--------8|

------------------------------|
------------------------------|
------------------------------|
----8---6-(6)-----------------|
--------------6-7-6----6-7-6--|
6--(6)--------------8--------8|

------------------------------|
------------------------------|
------------------------------|
----8---6-(6)-----------------|
--------------6-7-6----6-7-6--|
6--(6)--------------8--------8|

------------------------------|
------------------------------|
------------------------------|
----8---6-(6)-----------------|
--------------6-7-6----6-7-6--|
6--(6)--------------8--------8|


-------------------------------|
-------------------------------|
-------------------------------|
---8--6-8------------6-8-6-----|
--------------6-8-9--------9--8|
6-----------9------------------|

-------------------------------|
-------------------------------|
-------------------------------|
---8--6-8------------6-8-6-----|
--------------6-8-9--------9--8|
6-----------9------------------|

-------------------------------|
-------------------------------|
---8--6-8------------6-8-6-----|
--------------6-8-9--------9--8|
6-----------9------------------|
-------------------------------|

-------------------------------|
-------------------------------|
---8--6-8------------6-8-6-----|
--------------6-8-9--------9--8|
6-----------9------------------|
-------------------------------|

------------------------------|
------------------------------|
------------------------------|
----8---6-(6)-----------------|
--------------6-7-6----6-7-6--|
6--(6)--------------8--------8|

------------------------------|
------------------------------|
------------10--------------11|
--6-8-----8------6-8------8---|
--------9---------------9-----|
6-----6--------6------6-------|

-----------------------------|
-----------------------------|
------------10---------------|
--6-8-----8------6-8---------|
--------9---------------8-9-8|
6-----6--------6------6------|

------------------------------|
------------------------------|
------------10--------------11|
--6-8-----8------6-8------8---|
--------9---------------9-----|
6-----6--------6------6-------|

----------------------------|
----------------------------|
------------10--------------|
--6-8-----8------6-8--------|
--------9--------------6----|
6-----6--------6---------9-8|

--------------------------|
--------------------------|
-------------------------5|
10-8-10-11---8---------6--|
-8-6--8--9---6---6-8-9----|
-8-6--8--9---6------------|

--------------------------|
--------------------------|
-------------------------5|
10-8-10-11---8---------6--|
-8-6--8--9---6---6-8-9----|
-8-6--8--9---6------------|

--------------------------|
--------------------------|
-------------------------5|
10-8-10-11---8---------6--|
-8-6--8--9---6---6-8-9----|
-8-6--8--9---6------------|

--------------------------|
--------------------------|
-------------------------5|
10-8-10-11---8---------6--|
-8-6--8--9---6---6-8-9----|
-8-6--8--9---6------------|

------------------------|
------------------------|
11-11-11-11---7-7-7-7--7|
-8--8--8--8---8-8-8-8--8|
-6--6--6--6---6-6-6-6--6|

------------------------|
------------------------|
11-11-11-11---7-7-7-7--7|
-8--8--8--8---8-8-8-8--8|
-6--6--6--6---6-6-6-6--6|
------------------------|

--------------------|
--------------------|
6-6-6-6---5-5-5-5--5|
6-6-6-6---6-6-6-6--6|
4-4-4-4---4-4-4-4--4|
--------------------|

--------------------|
--------------------|
6-6-6-6---5-5-5-5--5|
6-6-6-6---6-6-6-6--6|
4-4-4-4---4-4-4-4--4|
--------------------|

------------------------|
------------------------|
11-11-11-11---7-7-7-7--7|
-8--8--8--8---8-8-8-8--8|
-6--6--6--6---6-6-6-6--6|

------------------------|
------------------------|
11-11-11-11---7-7-7-7--7|
-8--8--8--8---8-8-8-8--8|
-6--6--6--6---6-6-6-6--6|
------------------------|

--------------------|
--------------------|
6-6-6-6---5-5-5-5--5|
6-6-6-6---6-6-6-6--6|
4-4-4-4---4-4-4-4--4|
--------------------|

--------------------|
--------------------|
6-6-6-6---5-5-5-5--5|
6-6-6-6---6-6-6-6--6|
4-4-4-4---4-4-4-4--4|
--------------------|

---------------------------|
---------------------------|
---------------------------|
---------------------------|
---------------------------|
5-6-----5-6-----5-6-----5-6|

--------------------------|
--------------------------|
--------------------------|
-------8--10--------------|
8-9-10--------------------|
------------8-8-8-11--(11)|

---------------|
---------------|
---------------|
-------8--10---|
8-9-10---------|
------------8-8|

--------------------------|
--------------------------|
--------------------------|
-------8--10--------------|
8-9-10--------------------|
------------8-8-8-11--(11)|

---------------|
---------------|
---------------|
-------8--10---|
8-9-10---------|
------------8-8|

---------------------------|
---------------------------|
---------------------------|
-------------------------8-|
---------4----6^(6)-4-6/8--|
4-6-4-6----6---------------|

-----------------------------------|
-----------------------------------|
-----------------------------------|
-----------------------------------|
---------4----6^(6)-4-6/8--------4-|
4-6-4-6----6-------------4--5--6---|

-------------------------|-------------------------|
-------------------------|-------------------------|
-------------------------|-------------------------|
-------------------------|-------------------------|
6p4---4---6p4---4--------|6p4---4---6p4---4--------|
----6---------6-----4-5-6|----6---------6-----4-5-6|

-------------------------|--------------------------------------|
-------------------------|--------------------------------------|
-------------------------|--------------------------------------|
-------------------------|--------------------------------------|
6p4---4---6p4---4--------|6p4---4---6p4---4----------4-4-5-6-4^-|
----6---------6-----4-5-6|----6---------6----4--5--6-----------6|
comments
We did not receive enough feedback on this tab! Please rate:
print report bad tab
1 2 3 4 5
1 comment total.
0 reply
BigBuckethead1 wrote on March 31 2010, 02:45 pm

------------------------------|
------------------------------|
------------------------------|
----8---6-(6)-----------------|
--------------6-7-6----6-7-6--|
6--(6)--------------8--------8|

that part i would play it like this

------------------------------|
------------------------------|
------------------------------|
----8---6-(6)-----------------|
--------------6-7-6----6-7-6--|
6--(6)--------------9--------9|

------------------------------|
------------------------------|
------------------------------|
----8---6-(6)-----------------|
--------------6-7-6-4--6-7-6-4|
6--(6)----------------------- |

BUT THE TAB IS GREAT THANK YOU

I want to post or [tab]
guest
You may want to rate the tab now too:
select rating
Please do not post tabs as comments. Select "correction" instead!