Oops, an error
Loading. Please wait.

This Is Halloween Tab

version 3
version 3

Whole song

Interactive

1,827 views 1 this week
no commentswrite comment
1 2 3 4 5
3 more votes to show rating
add to favorites
launch autoscroll
font size
0
reset
how to read this tab
guitar tuner
Autoscroll
slow
fast
+/-
esc
set tempo
stop
Help us to improve Ultimate-Guitar.com Take our survey!
×
Author
Tuning
D# G# C# F# A# D#
I believe this is tuned in Eb, if not then sorry
If there's any mistakes please correct me, I'm tabbing this out just by watching
e|-7--7--7--7--7-8-5--5---5--5--5--5--7-8-7--7--7--7-8-10-8-7-5--5--5--5-7-8-3-3----|
B|-8--8--8--8--8-8-7--7---7--7--7--7--7-8-8--8--8--8--------------------------------|
G|----------------------------------------------------------------------------------|
D|----------------------------------------------------------------------------------|
A|----------------------------------------------------------------------------------|
E|-0--0--0--0--0-0-0--0---0--0--0--0--0-0-0--0--0--0--------------------------------|

e|---------------------------------------|
B|---------------------------------------|
G|---------------------------------------|
D|---------------------------------------|
A|-5-5-5p4p2-5-5-5p4p2-5-0-0-------2-3---|
E|-3-3-------3-3-------------3-2-0-------|

e|---------------------------------------|
B|---------------------------------------|
G|---------------------------------------|
D|---------------------------------------|
A|-7-7-7p6p4-7-7-7p6p4-7-2-2-------4-5---|
E|-4-4-------4-4-------------5-4-2-------|

Okay this is where the tapping starts.

e|--9-----9-----9---10---9-----9-----9---10---8-----8-----8---9----8-----8-----8---9----|
B|----7-7---7-7---7----7---7-7---7-7---7----7---6-6---6-6---6---6----6-6---6-6---6---6--|
G|--------------------------------------------------------------------------------------|
D|--------------------------------------------------------------------------------------|
A|--------------------------------------------------------------------------------------|
E|--2--------------------5--------------------7--------------------1--------------------|
(x2)
Suggest correction
Give kudos to tab author, rate the tab!
1 2 3 4 5
comments
print report bad tab
guest
You may want to rate the tab now too:
select rating
Wanna post a correction for this tab? Suggest correction