Oops, an error
Loading. Please wait.

Too Many Humans Tab

version 1
version 1

Whole song

Interactive

8,510 views 1 this week
5 commentsread comments
1 2 3 4 5
worth learning
x 3
add to favorites
launch autoscroll
font size
0
reset
how to read this tab
guitar tuner
Tab Pro tools
  • play this tab
  • loop segment
  • change instrument
  • show fretboard
  • metronome
Autoscroll
slow
fast
+/-
esc
set tempo
stop
Difficulty
intermediate
This is my first tab, that i've made.I saw that there was no tab for this song so i
to tab it my self since the the song was so good. Its not the whole song but covers 
up
the electro harmonizer/piano. After that are some fast runs/chords but as this song is 
long i couldn't be bothered to tab it. Its atleast 90% right, but hey i'm only 15. Well
the tab anyway. Enjoy. Bucketheads n awsome guitarist.
Tabbed by Alex Convary.
Normal notation.
<5> harmonic
As usual you will have to listen to the track for timing.


e|-----------------------------------------/19-17-15------|
B|-15-17-17-15---------------------15-h17-15--------------|
G|-------------14b(16)r14-14b16-/16-----------------------|
D|--------------------------------------------------------|
A|--------------------------------------------------------|
E|--------------------------------------------------------|

e|-15-14h15p14-----------------------------------------------|
B|-------------17-17p15-----------------------------12-------|
G|---------------------16-14-16br17-16\14\11-11b(12)--(12)r11|
D|-----------------------------------------------------------|
A|-----------------------------------------------------------|
E|-----------------------------------------------------------|
                                             hold bend
e|------------------------------------------------------|
B|---------------------------------------15h17-17p15----|
G|-9-9p7-----------------/14-12-14-14/16------------16--|
D|------9p7\5---5-7-7/9---------------------------------|
A|------------/7----------------------------------------|
E|------------------------------------------------------|

e|-----------------------------------------------------|
B|-/17-17p15--15-17p15---------------------------------|
G|----------16--------16p14-14p12----------------------|
D|-------------------------------14-14p12h14-14p12h14--|
A|-----------------------------------------------------|
E|-----------------------------------------------------|

e|--------------------------------------------------|
B|--------------------------------------------------|
G|--------12-14-14b(16)----12-14-14b(16)14p12-14----|
D|14p12h14--------------/14-------------------------|
A|--------------------------------------------------|
E|--------------------------------------------------|

e|----------10-12-12h14p12-10-12-14p12-15p14-19-17--|
B|-17p15\12-----------------------------------------|
G|--------------------------------------------------|
D|--------------------------------------------------|
A|--------------------------------------------------|
E|--------------------------------------------------|

e|--15p14-------------------------------------------|
B|-------17p15-17-17p15-----------------------------|
G|---------------------16p14-14p12------12--12-14-12|
D|--------------------------------14-/14--14--------|
A|--------------------------------------------------|
E|--------------------------------------------------|

e|--------------------------------------------------|
B|---12--12-15-12-15/17-17p15-15p12-----------------|
G|-14--14--------------------------14p12---12-11-9--|
D|--------------------------------------14----------|
A|--------------------------------------------------|
E|--------------------------------------------------|
                                  ?dead strings/notes?
e|--------------------------------------------------|
B|-----------------------------------12-15p12-15(17)|
G|-7-9-7h7-9p7-------/12-11(12)11-/14---------------|
D|------------9p7\5---------------------------------|
A|-----------------7\-------------------------------|
E|--------------------------------------------------|

e|--------------------------------------------------|
B|-15p12--12---------------------12-15-12--12-15-12-|
G|------14--14p12h14-12-11(12)11---------14---------|
D|--------------------------------------------------|
A|--------------------------------------------------|
E|--------------------------------------------------|

e|--------------------------------------------------|
B|---12-15(17)--12-15-12--12-15-12------------------|
G|-14-------------------14--------12-/14-12-14-12\11|
D|--------------------------------------------------|
A|--------------------------------------------------|
E|--------------------------------------------------|

e|---------------------------14----17p15------19p15----|
B|--12-15p12-15p12------15h17--15-------15-15----------|
G|-------------------------------16--------------------|
D|-----------------------------------------------------|
A|----------------12b(14)------------------------------|
E|-----------------------------------------------------|

e|--------------------------------------------------|
B|-17-17-17p15\12-/17p15\12-------------------------|
G|-------------------------{7h9-7h9-7h9-7h9}--------|
D|--------------------------------------------------|
A|--------------------------------------------------|
E|--------------------------------------------------|
                        {repeat section 3 times}
e|----------------------------12--------------------|
B|---------------12--------/12--15------------------|
G|-------------12--14p12-14-------16p14-16----------|
D|-9p7\5----/14-------------------------------------|
A|-------7\-----------------------------------------|
E|--------------------------------------------------|

e|--------------------------------------------------|
B|-15b(17)-15-12------------------15b(17)-15-12--12-|
G|--------------14-12---------12\--------------14---|
D|-------------------14p12-14-----------------------|
A|--------------------------------------------------|
E|--------------------------------------------------|

e|--------------------------------------------------|
B|--------------------------------------------------|
G|-14-12-14-14b(16)-11b(12)r11-9-11-11b(12)r11------|
D|--------------------------------------------------|
A|--------------------------------------------------|
E|--------------------------------------------------|

e|--------------14h15-------------------------------|
B|------------15-----15--15p12-15p12-15/17-17p15-12-|
G|----------16---------16---------------------------|
D|-/7-9p7-9-----------------------------------------|
A|--------------------------------------------------|
E|--------------------------------------------------|

e|-------------------------------------------------------------|
B|----------12-------12---------17p15-12-------12--------------|
G|---14b(16)--14b(16)--16p14-16---------14b(16)----------------|
D|-------------------------------------------------------------|
A|-------------------------------------------------------------|
E|-------------------------------------------------------------|

e|--------------------------------------------------|
B|--------------------------------------------------|
G|-14p12-9\7-7/9-9/11-11/12-14p12-14-14-11b(12)-11--|
D|--------------------------------------------------|
A|--------------------------------------------------|
E|--------------------------------------------------|

e|--------------------------------------------------|
B|-------15b(17)-15-12----------15------------------|
G|-9-7-/9-------------14b(16)r14--14b(16)-14p12-14--|
D|--------------------------------------------------|
A|--------------------------------------------------|
E|--------------------------------------------------|

e|-------------------------------14--17-15-14-14h15p14--|
B|---------------------------15----17-------------------|
G|-9p7--------------------7----14-----------------------|
D|----9p7-7\5--------5-5/7-9----------------------------|
A|-----------7--5-5/7-----------------------------------|
E|------------------------------------------------------|

e|--------------------------------------------------|
B|-17-17-15-17-15-----------------------------------|
G|---------------14-16-14-12-14-12----------12------|
D|--------------------------------14-12-14\-12-14---|
A|--------------------------------------------------|
E|--------------------------------------------------|

e|--------------------------------------------------|
B|-12----------------------------15--15b(17)-12-----|
G|-12------{-14b(16)-}-14-12-------14---------------|
D|---14---------------------14-14-------------------|
A|--------------------------------------------------|
E|--------------------------------------------------|
           {repeat bend 23/22 times}
e|--------------------------------------------14p12-|
B|-----------------------------12-15-17-17p15-------|
G|-12-14-12-14b(16)r14-12-12-14---------------------|
D|--------------------------------------------------|
A|--------------------------------------------------|
E|--------------------------------------------------|
 3:30  Distortion
e|-15p14-17p15-14h15-14p12--------------------------|
B|------------------------15b(17)-12----------------|
G|----------------------------------14p12-12\11-----|
D|--------------------------------------------------|
A|--------------------------------------------------|
E|--------------------------------------------------|

e|--------------------------------------------------|
B|--------------------------------------------------|
G|-11\9-9\7-7/9---9-9-7-9-9-7-9---7/9\7---7-9-------|
D|--------------/9-------------7h9-----7/9----------|
A|--------------------------------------------------|
E|--------------------------------------------------|

e|-17h19-15-14-14b(15)14----------------------------|
B|----------------------17--------------------------|
G|--------------------------------------------------|
D|--------------------------------------------------|
A|--------------------------------------------------|
E|--------------------------------------------------|
 goodluck with that fast run-improvise notes in key of G
e|----------------------------------------12--------|
B|----------------------------------------15p13p12--|
G|-12-14-12-14-14b(16)-12-14-12-14-14b(16)----------|
D|--------------------------------------------------|
A|--------------------------------------------------|
E|--------------------------------------------------|

e|--------------------------------------------------|
B|--------------------------------------------------|
G|-12-14-16-14-12-14-14b(16)------------------------|
D|--------------------------------------------------|
A|--------------------------------------------------|
E|--------------------------------------------------|
  4:15 Harmonics
e|----10----------------10--------------------------|
B|--12-------------10-12----------------------------|
G|------12-14-12-14---------------------------------|
D|--------------------------------------------------|
A|--------------------------------------------------|
E|--------------------------------------------------|
  4:30 enter the Piano of some sort.
e|--------------------------------------------------|
B|------------------------------15p12-15p12-15b(17)-|
G|-16p14p12-16p14p12h14-14b(16)---------------------|
D|--------------------------------------------------|
A|--------------------------------------------------|
E|--------------------------------------------------|

e|-14p12-15b(17)-17h19-17-14h15p14------------------|
B|---------------------------------17-17------------|
G|--------------------------------------------------|
D|--------------------------------------------------|
A|--------------------------------------------------|
E|--------------------------------------------------|

e|--------------------19-17-15-14--------------------------|
B|-15p12--12h15b(17)-------------12h15b(17)----------------|
G|------14---------------------------------14p12-----------|
D|---------------------------------------------------------|
A|---------------------------------------------------------|
E|---------------------------------------------------------|

e|--------------------------------------------------|
B|--------------------------------------------------|
G|-11b(12)r11--11b(12)r11-7------------------<12>---|
D|------------9----------------12-14----12-14---<14>|
A|--------------------------/14------/14------------|
E|--------------------------------------------------|

e|--------------------------------------------------|
B|--------------------------------19p17p15-17p15p12-|
G|------------12--12-14p12-14b(16)------------------|
D|----12-12h14--14----------------------------------|
A|-/14----------------------------------------------|
E|--------------------------------------------------|

e|--------------------------------------------------|
B|-12\10-10\8-8\7-{8p7h8}-------------{8p7h8}-------|
G|------------------------9p7-----------------------|
D|---------------------------9p7-7\5----------------|
A|----------------------------------7---------------|
E|--------------------------------------------------|
    {Repeat around 12 times}   {Repeat around 15 times}
e|----------------------------12--------------------|
B|-7/8-8/10-10\8-8/10-10/12-12--15-15b(17)-15-12----|
G|-------------------------------------------14-----|
D|--------------------------------------------------|
A|--------------------------------------------------|
E|--------------------------------------------------|

e|--------------------------------------------------|
B|------------------------------15b(17)-15-12-------|
G|-16p14p12---------11b(12)r11---------------14b(16)|
D|----------12-14-12--------------------------------|
A|----------------------------14--------------------|
E|--------------------------------------------------|

e|--------------------------------------------------|
B|------------------15b(17)-12----------------------|
G|-14-12--------12\-----------14-12-14-14b(16)------|
D|------14-12-14------------------------------------|
A|--------------------------------------------------|
E|--------------------------------------------------|

e|--------12------------12-14-14h15-17p15p14-12--12-|
B|12h15p12--12--12-12-15-----------------------15---|
G|--------------------------------------------------|
D|--------------------------------------------------|
A|--------------------------------------------------|
E|--------------------------------------------------|
comments
We did not receive enough feedback on this tab! Please rate:
print report bad tab
1 2 3 4 5
5 comments total. Showing first comments.
+1 reply
LesPaulKid22 wrote on February 8 2008, 02:51 pm

SOMEONE PLEASE MAKE A GUITAR PRO TAB OF THIS PLEASSEEEEEEEEE!!!!!!!

THIS WOULD BE SWEET TO HAVE ON GUITAR PRO!!!

lespaulkid22...

0 reply
GilmourNBucketH wrote on February 8 2008, 06:43 pm

Sorry i didn't have guitar pro when i made this, n i still don't. R u the one that is playing this song on youtube twice?

GilmourNBucketH

+3 reply
toine wrote on May 5 2008, 10:31 am

where does this begin in the song? :s i'm confused

I want to post or [tab]
guest
You may want to rate the tab now too:
select rating
Please do not post tabs as comments. Select "correction" instead!