Oops, an error
Loading. Please wait.

Too Many Humans Tab

version 2
version 2

Whole song

Interactive

13,818 views 12 this week
10 commentsread comments
1 2 3 4 5
excellent!
x 20
add to favorites
launch autoscroll
font size
0
reset
how to read this tab
guitar tuner
Autoscroll
slow
fast
+/-
esc
set tempo
stop
Help us to improve Ultimate-Guitar.com Take our survey!
×
Author
-------------------------------------------------------------------------------
			     Too Many Humans - Buckethead
-------------------------------------------------------------------------------
Tabbed by: Alexander "hSn" Hanssen
Email: fot_sopp@hotmail.com

Tuning: Standard

Ok this took some time to tab, some of the fast runs aren't 100% accurate but
you should get the idea. LISTEN TO THE SONG to learn this one, you need it for timing
etc. 

0.00 - 0.23
e|-------------------------------------------------------------------------------|
B|-------9s11-----------7b9b7------4s6s4s6s4s3s2s1s0------------------------15---|
G|-----6--------------6---------------------------------------------------12-----|
D|--s8---------------8----------------------------------4h5------0h2sss-14-------|
A|-------------------------------------------------------------------------------|
E|-------------------------------------------------------------------------------|


0.23 - 0.37  (slowly bend back up to 16 and vibrato)
e|--------------------------------------------------------19pb17-15-14-h15------|
B|--17-15----------------------------15-15h17~~~~ 15---------------------- 15h17|
G|-------16-14b16-14(b16)-------14h16-------------------------------------------|
D|------------------------------------------------------------------------------|
A|------------------------------------------------------------------------------|
E|------------------------------------------------------------------------------|


0.37 - 0.43						(hold bend)
e|---------------------------------------------------------------------------|
B|--15h17p15--------------------------------------------------15-------------|
G|----------16--------16-14-12-14-16b17b16-14-12-11--11b12~~~~---b11---------|
D|-------------------------------------------------------------------12h14-14|
A|---------------------------------------------------------------------------|
E|---------------------------------------------------------------------------|

(fast run here, hard to hear and might not be 100%, just mess with these notes)
0.44 - 0.47
e|---------------------------------------------------------------------------|
B|---------------------------------------------------------------------------|
G|---------------------------------------------------------------------------|
D|-14-12h14p12---------------------------------------------------------------|
A|--------------14-12s10----10~~~~-12----------------------------------------|
E|-----------------------12--------------------------------------------------|


0.47 - 0.52				(this one is pretty fast too)
e|---------------------------------------------------------------------------|
B|-------------------17---------------------17-------------------------------|
G|------16---14p12-------16p14----------------16p14----14h16p14s12--12-------|
D|---14-----------14----------17p14----------------17-------------14--14p12--|
A|---------------------------------------------------------------------------|
E|---------------------------------------------------------------------------|


0.52 - 1.00
e|---------------------------------------------------------------------------|
B|---------------------------------------------------------------------------|
G|---------------------------------11h12---11h12h14s16~~~~-------------------|
D|-12-14-12-14--12h14-12h14-12h14~~------14----------------------------------|
A|---------------------------------------------------------------------------|
E|---------------------------------------------------------------------------|


1.00 - 1.10
e|------------------------------------------------12h14-14---15----17--------|
B|---------------------------------15p13p12~---12----------12----12----------|
G|---12p11-12-14~~-16p14p12-14~~---------------------------------------------|
D|---------------------------------------------------------------------------|
A|---------------------------------------------------------------------------|
E|---------------------------------------------------------------------------|


1.10 - 1.17 (fast h/p's here)			(fast run here)
e|---19----17p15h17-15p12h15----------------------------------------------------|
B|---------------------------17p15h17--------17p15--15--------------------------|
G|------------------------------------------------16--16-14-16-14-12-14p12--12--|
D|------------------------------------------------------------------------14--14|
A|------------------------------------------------------------------------------|
E|------------------------------------------------------------------------------|

1.17 - 1.22 (This part is hard to tab, just use these notes, the 15h17 part shouldnt
be hard to hear. He does that just before he
does the next  fast run before the band enters.) 
e|---------------------------------------------------------------------------------|
B|--------------------------------------------------------------15h17-15h17-15h17~~|
G|-----------------------------12----12-14-12-14-12-14-16-14h16--------------------|
D|-s14-12-14-12-14-12-14-12-14----14-----------------------------------------------|
A|---------------------------------------------------------------------------------|
E|---------------------------------------------------------------------------------|


1.22 - 1.24 
(the fast run, just make sure u land on the E note on the 14th fret Dstring)
e|---------------------------------------------------------------------------|
B|---15h17p15----------------------------------------------------------------|
G|-----------14h16p14-12h14p12-----------------------------------------------|
D|------------------------------12h14~~~~------------------------------------|
A|---------------------------------------------------------------------------|
E|---------------------------------------------------------------------------|


1.27 - 1.37(band enters)						(slow bend)
e|---------------------------------------------------------------------------|
B|---------------------------------------------------------------------------|
G|--14-12p11--------------------------------------------11h12p11---11b12b11--|
D|--------------12----12h14--------------------------------------------------|
A|--------------------------12h14p12s10--------------------------------------|
E|--------------------------------------12sss(5p)3~~-------------------------|


1.38 - 1.44				  (fast bend)		(normal one)
e|---------------------------------------------------------------------------|
B|-----15--15h17~--15--------------------------------------------------------|
G|---16--16----------16p14-14h16~(p14)------14b16b14p12-12h14-12--11b12b11~~-|
D|---------------------------------------------------------------------------|
A|---------------------------------------------------------------------------|
E|---------------------------------------------------------------------------|


1.44 - 1.52 (palm mute the g string a bit here)
e|-----------------------------------------------------------------------------------|
B|--------15-------15-------15-------15s17s15s17--------15-------15-------15s17s15s17|
G|---11-11----11-11----11-11----11-11--------------11-11----11-11----11-11-----------|
D|-----------------------------------------------------------------------------------|
A|-----------------------------------------------------------------------------------|
E|-----------------------------------------------------------------------------------|


1.55 -1.59
e|---------------------------------------------------------------------------|
B|-----------------------------15--15----------------------------------------|
G|---16pb14-12-14-12s11------16---16---16p14s12~-----------------------------|
D|-----------------------------------------------14~-------------------------|
A|---------------------------------------------------------------------------|
E|---------------------------------------------------------------------------|


2.00 - 2.08
e|----------------14----------17p14----------19-15-19-15-17-15------------------|
B|-------------------15p12~--------15-15h17--------------------17----17p15p12-12|
G|--11b12b11---12---------------------------------------------------------------|
D|----------14------------------------------------------------------------------|
A|------------------------------------------------------------------------------|
E|------------------------------------------------------------------------------|


2.09 - 	2.13			(hp\pull offs, listen to the music for timing)
e|------------------------------------------------------------------------------|
B|--15b17-17pb15-12-------------------------------------------------------------|
G|------------------14-12-------------------------------------------------------|
D|------------------------12h14----12tr14------12s14p12-------------------------|
A|------------------------------------------------------14p12s10----------------|
E|---------------------------------------------------------------12-------------|

2.13  - 2.17
e|--------------------------------------------------------------------|
B|-------------------------------15-13-12tr13-------------------------|
G|-----------------11-12-14-12-11-------------------------------------|
D|-----------12-14----------------------------------------------------|
A|--12-14-15----------------------------------------------------------|
E|--------------------------------------------------------------------|


2.21 - 2.29
e|--10h12---10-----------------------------------10h12---10------------------|
B|------------12p10----------------------------------------12p10----10b12----|
G|-----------------12~----9--9-12-9--12~------------------------12-----------|
D|-------------------------12------------------------------------------------|
A|---------------------------------------------------------------------------|
E|---------------------------------------------------------------------------|


2.29 - 2.34
e|----------------------------------------------------------------------|
B|----------------------------------------------------------------------|
G|--12h14-12~~---11-12--11h12-(p11)--(s7)-------------------------------|
D|---------------------------------------(9~)---------------------------|
A|----------------------------------------------------------------------|
E|----------------------------------------------------------------------|


2.34 - 2.42
e|-------14-14h15p14-------------------12~~-----12--------------------------------------|
B|--12h15------------15p12-15p12-15-12------------15-12-----------------------12--------|
G|-----------------------------------------------------14b16-14-12-14-12-12-14--14-12~--|
D|------------------------------------------------------------------------------------14|
A|--------------------------------------------------------------------------------------|
E|--------------------------------------------------------------------------------------|


2.42 - 2.53 (scrape down here)
e|------12--------------------------------------------------------------------|
B|-----12--15p12--------------------------------------------------------------|
G|----12--------14p12----------------11h12--12h14p12-14-14-----12-----11h12---|
D|--14---------------14-12~-----12h14---------------------------------------12|
A|----------------------------------------------------------------------------|
E|----------------------------------------------------------------------------|


2.54 - 3.01(listen to the music for this one)
e|---------------------------------------------------------------------------------|
B|--15b17~--15b17-15-12---------------15-12----------------------------------------|
G|----------------------16pb14b16~----------14b16-14-14-14b16----------------------|
D|------------------------------------------------------------14---12h14-----------|
A|-----------------------------------------------------------------------14p12s10--|
E|-------------------------------------------------------------------------------12|


3.01 - 3.08
e|-----------------------------------------14--------17-15---14h15p14--------------|
B|---------------------------------15-12------15-12-------------------17~-slidedown|
G|-------------------11h12p11---11-------------------------------------------------|
D|---------------------------------------------------------------------------------|
A|----------10-12-14---------------------------------------------------------------|
E|-10-12-14------------------------------------------------------------------------|


3.08 - 3.11 
(pretty fast run, this isn't accurate, just try to start on the
17th fret b string at right time and end on the 12th fret on the e string at the end.
e|---------------------------------------------------------------------------|
B|---17-15--15---------------------------------------------------------------|
G|--------16--16-14-16-14-12-14-12--12---------------------------------------|
D|--------------------------------14--14-12-14-12--12------------------------|
A|-----------------------------------------------14--14-12-14-12-10----------|
E|------------------------------------------------------------------12-------|

3.11 - 	3.20	     (let 15 ring)
				(*listen to the music, he bends it up to 14 and
 hits the string different places to make that cool effect)
e|------------------------------------------------------------------------------|
B|-------------------15---------------12h1512-12-12-----------------------------|
G|---x-x-12--12------14b16-14b16-----x-------------14b16--b16*------14b16b14-12-|
D|---x-x-12--12---------------------x-----------------------------------------14|
A|---x-x---14--14~--------------------------------------------------------------|
E|------------------------------------------------------------------------------|


3.21 - 3.30    (slowly bend down after u hit the note and p\o hard to the 12th fret)
e|---14----------------------------------------------------------------------|
B|------15-----15b17---p12~--------------------------------------------------|
G|------------x--------------------------------------------------------------|
D|-----------x---------------------------------------------------------------|
A|---------------------------------------------------------------------------|
E|---------------------------------------------------------------------------|

(sweet distortion)
3.30 - next bar
e|------------------------------------14-15--17p15--19p15-17--15h17p15-14h15p14---|
B|-------------------------------12-15--------------------------------------------|
G|--12-14p12-14b16b14-12~---12h14-------------------------------------------------|
D|--------------------------------------------------------------------------------|
A|--------------------------------------------------------------------------------|
E|--------------------------------------------------------------------------------|


previous bar - 3.44
e|---------------------------------------------------------------------------|
B|-15s17-15------------------------------------------------------------------|
G|---------16--14h16p14p12s11------------------------------------------------|
D|-----------------------------14p12-14--------------------------------------|
A|---------------------------------------------------------------------------|
E|---------------------------------------------------------------------------|


3.45 - 3.53
e|---------------------------------------------------------------------------|
B|---------------17--15-17----------15---------------17----------------------|
G|-----12-14-16-----------14h16-------16-14-16--14h16------------------------|
D|--s14----------------------------------------------------------------------|
A|---------------------------------------------------------------------------|
E|---------------------------------------------------------------------------|


3.53 -	4.02			(crazy run starts here, mess around with
				the notes he uses in this song and land on the 12th fret E string)
e|--17h19-15-14--b15---------------------------------------------------------------------------|
B|------------------17-------------------------------------------------------------------------|
G|---------------------------------------------14h16----16h17p16p14----------------------------|
D|----------------------------14h16h17-14h16h17--------------------17-----------10h12p10h14----|
A|----------------------------------------------------------------------10h12p10---------------|
E|-----------------------------------------------------------------------------------------xx12|


4.04 - 4.11
e|---------------------------------------------------------------------------|
B|-------------------------------------15------------------------------------|
G|--12-14-14s16~-------12-14-12-14s16----16--------12h14p12h14s16------------|
D|-x------------------x------------------------------------------------------|
A|---------------------------------------------------------------------------|
E|---------------------------------------------------------------------------|

(distortion off)
4.22 - 4.40
e|---------------------------------------------------------------------------|
B|----15---------------------15----------------------------------------------|
G|-12---------12-11-12-12-14----------------------14p12-14-14p12-14s16-------|
D|---------------------------------------------------------------------------|
A|---------------------------------------------------------------------------|
E|---------------------------------------------------------------------------|


4.41 - 4.52
e|-----------------15----15h17----17b19----15h17-15-14--14h15p14-------------|
B|--15-12-15h17------17------------------------------------------17-17-17----|
G|---------------------------------------------------------------------------|
D|---------------------------------------------------------------------------|
A|---------------------------------------------------------------------------|
E|---------------------------------------------------------------------------|


4.53 - 5.04
e|----------------19-15-17-14-h15--------------------------------------------|
B|-------15-17--------------------15h17--------------------------------------|
G|--14h16-----------------------------------16rb14p12-12-12-11b12b11---------|
D|---------------------------------------------------------------------------|
A|---------------------------------------------------------------------------|
E|---------------------------------------------------------------------------|


5.04 5.14
e|---------------------------------------------------------------------------|
B|--15-----------------------------------------------------------------------|
G|-----11(b12b11)-----------------------------------------12-----------------|
D|-----------------14------------14-------------12-12h14----14---------------|
A|-------------------12h14--12h14----------12h14-----------------------------|
E|---------------------------------------------------------------------------|


5.14 - 5.26
e|-----------------------------------------14pb12p10-------------------------|
B|----------------------------------------------------12-10s8s7---7tr8-------|
G|------------------12--12-14p12-14s16---------------------------------------|
D|-------12-12h14-----14-----------------------------------------------------|
A|--12h14--------------------------------------------------------------------|
E|---------------------------------------------------------------------------|


5.26 - 5.32
e|---------------------------------------------------------------------------|
B|-8-7-------------------------------8p7----7tr8--s10-x-s12------------------|
G|----9-7-7h9~--7----------------7-9-----------------------------------------|
D|----------------9-7s5~----5h7s9--------------------------------------------|
A|---------------------------------------------------------------------------|
E|---------------------------------------------------------------------------|


5.32 - 5.40
e|--7-10-7-10h12--p10p7s5----5h7p5p0-----------------------------------------|
B|---------------------------------------------------------------------------|
G|---------------------------------------------------11b12b11----------------|
D|---------------------------------------12-14-12-14-------------------------|
A|-----------------------------------------------------------14--------------|
E|---------------------------------------------------------------------------|


5.40 - 5.48
e|---------------------------------------------------------------------------|
B|--15b17b15p12------12-------------------------------15b17b15p12------------|
G|--------------14b16---14p12-12-14-14b16b14-12~------------------12h14h16---|
D|---------------------------------------------------------------------------|
A|---------------------------------------------------------------------------|
E|---------------------------------------------------------------------------|


5.49 - 5.55
e|-------------------------------15-14-15-14h15p14p12------------------------|
B|---17pb15p12-15-12--------12-15--------------------15-15-15----------------|
G|---------------------------------------------------------------------------|
D|---------------------------------------------------------------------------|
A|---------------------------------------------------------------------------|
E|---------------------------------------------------------------------------|

5.59 - 6.11 (hold the chords while u pick the other notes)
e|-----7---------------------------------------------------------------------|
B|------8--------------------------------------------------------------------|
G|--9~---9------7~-----------5-----------------------------------------------|
D|--9~----------7~-----------5-----------------------------------------------|
A|--7~----------5~-----------3-----------------------------------------------|
E|---------------------------------------------------------------------------|



6.12 - 6.17 (pretty hard one)		(just go nuts around these notes:p)
					(land on 12th fret e string or 17th b)
e|---14p12---------12----------------------------------14h15p14-12-------12--|
B|--------15-15b17---15-12-15--15-13-12--12h13p12--12-------------15---------|
G|-------------------------------------14--------14--------------------------|
D|---------------------------------------------------------------------------|
A|---------------------------------------------------------------------------|
E|---------------------------------------------------------------------------|


6.18 - 	6.24	    pm.................
e|----------17---------------------------------------------------------------|
B|---------------------15----15----15----------------------------------------|
G|---19+-------------11----11----11---11-------------------------------------|
D|-19+-----------------------------------------------------------------------|
A|---------------------------------------------------------------------------|
E|---------------------------------------------------------------------------|


6.24 - 6.28
e|-----------14h15-17-14-15-19-----15-15p14----------------------------------|
B|---8-10-12---------------------17------------------------------------------|
G|--7------------------------------------------------------------------------|
D|-9-------------------------------------------------------------------------|
A|---------------------------------------------------------------------------|
E|---------------------------------------------------------------------------|



6.28 - 6.41			 (repeat this part twice)
e|---12-10p8-7-10----------------7-7-7---5-5-5-5---3----------8--8ss10s8--7-7|
B|----------------7b8------------8-8-8-x-7-7-7-7-x-5-x-3x3h5--10-10s12s10-8-8|
G|----------------------7h9s11-----------------------------------------------|
D|---------------------------------------------------------------------------|
A|---------------------------------------------------------------------------|
E|---------------------------------------------------------------------------|


6.42 - 6.58
e|--7-5-2-3-----7-5--2-3-------------7-5--3---2----7-5-3--2--(10-10h12)------|
B|--8-7-3-5-----8-7--3-5-3h5-3-------8-7--5---3----8-7-5--3------------------|
G|-------------------------------2~------------------------------------------|
D|---------------------------------------------------------------------------|
A|---------------------------------------------------------------------------|
E|---------------------------------------------------------------------------|


6.58 - 7.07
e|-7-5-3-2----10-10---10p8p7--10---------------------------------------------|
B|-8-7-5-3----------------------7(b8s12)-------------------------------------|
G|---------------------------------------------------------------------------|
D|---------------------------------------------------------------------------|
A|---------------------------------------------------------------------------|
E|---------------------------------------------------------------------------|


7.08 - 7.34 (pick some of the highest strings while you hold these chords)
		(they are Em, D and C barre chords)
e|-----7---------------------------------------------------------------------|
B|------8--------------------------------------------------------------------|
G|--9~---9------7~-----------5---------7-----------9--------7-------5--------|
D|--9~----------7~-----------5---------7-----------9--------7-------5--------|
A|--7~----------5~-----------3---------5-----------7--------5-------3--------|
E|---------------------------------------------------------------------------|



7.34 - 7.36 (fast run, improv here)
e|---------------------------------------------------------------------------|
B|---------------------------------------------------------------------------|
G|--14b16-14-12--12----------------------------------------------------------|
D|-------------14--14-12-14-12-----------------------------------------------|
A|----------------------------14-12-14-12-10---------------------------------|
E|------------------------------------------12-10-12-------------------------|


7.36 - 7.41(long fast run here, hard to tab just improv.)
(Start on the 17th fret b string, land on 14th fret D string)
(You could do the run somewhere else on the neck, just use the same notes.)
(this is the kind of pattern he uses)
e|---------------------------------------------------------------------------|
B|--17p15--15----------------------------------------------------------------|
G|-------16--16-14-----------------------------------------------------------|
D|---------------------------------------------------------------------------|
A|---------------------------------------------------------------------------|
E|---------------------------------------------------------------------------|

7.41 - 8.15 Same chord progression as before.

8.15 - 8.28
e|-----------10--------------------------------------------------------------|
B|---------------------------------------------------------------------------|
G|------11-12----------------------------------------------------------------|
D|----9----------------------------------------------------------------------|
A|--7------------------------------------------------------------------------|
E|---------------------------------------------------------------------------|



| s  slide
| h  hammer-on
| b  bend
| pb prebend
| p  pull-off
| tr trill
| ~  vibrato
| +  harmonic
| x  Mute note
===============================================================================
Suggest correction
What's this?
You can suggest a correction to this tab. Community and Mods will review your correction and vote to approve or reject it.
comments
print report bad tab
10 comments total. Showing first comments.
+1 reply
eueueu 218 wrote on December 21 2008, 01:14 pm

Almost perfect, but couldn't you have GPd it?

0 reply
bigfootone212 31 wrote on January 5 2009, 01:15 am

thank you for this, for real. pretty accurate too

0 reply
Mapon123 144 wrote on March 7 2009, 03:03 am

yes this tab is very accurate, and I like how you say 'just mess around with these notes' because thats exactly what buckethead is doing.

guest
You may want to rate the tab now too:
select rating
Please do not post tabs as comments. Select "correction" instead!