Oops, an error
Loading. Please wait.

Unemployment Blues Tab

1,240 views 3 this week
1 commentread comment
1 2 3 4 5
excellent!
x 3
add to favorites
launch autoscroll
font size
0
reset
how to read this tab
guitar tuner
Tab Pro tools
  • play this tab
  • loop segment
  • change instrument
  • show fretboard
  • metronome
Autoscroll
slow
fast
+/-
esc
set tempo
stop
Contributor
Song: Unemployment Blues
Artist: Buckethead
Album: Bucketheadland 2
Tabbed by: Brian Dumont (Brian0192837465@hotmail.com)

Pretty easy song. Lightly fingerpick throughout. Have fun, please rate and
comment and send corrections if you think it's incorrect to my e-mail or 
shoot me a message here.

0:00-0:26
---------

E|---8------8------8------8----------|---7-----7-----7-----7-------------|
B|----9------9------9------9---------|----8-----8-----8-----8------------|
G|-----7------7------7------7--------|-----6-----6-----6-----6-----------|
D|-10----10-----10-----10-----10-----|-9-----9-----9-----9-----9---------|
A|-----------------------------------|-----------------------------------|
E|-----------------------------------|-----------------------------------|


                                                                        x7    
E|---6------6------6------6----------|---5-----5-----5-----5-------------|
B|----7------7------7------7---------|----6-----6-----6-----6------------|
G|-----5------5------5------5--------|-----4-----4-----4-----4-----------|
D|--8-----8------8------8------8-----|-7-----7-----7-----7-----7---------|
A|-----------------------------------|-----------------------------------|
E|-----------------------------------|-----------------------------------|


0:27-0:34
---------
                                   x2
E|-----------------------------------|-------------------------2---------|
B|-----------------------------------|-----------------------------2-----|
G|-----------------------------------|---------------------2-------------|
D|-------3-----------4------4--------|-------3-----------4---------------|
A|----3----3---------4------4--------|----3----3-------4-----------------|
E|-1-------------2-------2-----------|-1-------------2-------------------|



0:35-0:52
---------
                                   x12
E|--------4-3-4---4-------4-3-4---4--|
B|------6-------6-------6-------6----|
G|----7---------------7--------------|
D|--5---------------5----------------|
A|-----------------------------------|
E|-----------------------------------|



0:53-1:05
--------- 

Staccato throughout; mute immediantly after playing each note.
                                    x4                                  
E|-----------------------------------|-----------------------------------|
B|----8-----8-----7-----7------------|----6-----6------5-----5----4---4--|
G|----7-----7-----6-----6------------|----5-----5------4-----4----3---3--|
D|-5-----5-----4-----4---------------|-3-----3------2-----2-----1---1----|
A|-----------------------------------|-----------------------------------|
E|-----------------------------------|-----------------------------------|



E|-----------------------------------|-----------------------------------|
B|----3-----3------------------------|----4----4-----5-----5-------------|
G|----2-----2----6-----6-----7-----7-|----3----3-----4-----4-------------|
D|-0-----0-------6-----6-----7-----7-|-1----1-----2-----2----------------|
A|------------4-----4-----5-----5----|-----------------------------------|
E|-----------------------------------|-----------------------------------|



1:06-1:18
--------- 
                                    x7
E|----------4-----4------------------|
B|-------------6--------6------------|
G|----7--------------7---------------|
D|-5-----5---------------------------|
A|-----------------------------------|
E|-----------------------------------|



1:19-1:44
--------- 

E|--------------15-------------------|-----------------------------------|
B|-----------18----18-----18---------|----16--------16-------16----------|
G|----17--------------17-------------|-------15--------15----------------|
D|-15----15--------------------------|-13-------13--------13-------------|
A|-----------------------------------|-----------------------------------|
E|-----------------------------------|-----------------------------------|


                                                                        x4
E|-----------------------------------|-----------------------------------|
B|----14--------14--------14---------|----13--------13--------13---------|
G|-------13--------13----------------|-------12--------12----------------|
D|-11-------11--------11-------------|-10-------10--------10-------------|
A|-----------------------------------|-----------------------------------|
E|-----------------------------------|-----------------------------------|



1:45-1:55
--------- 
                                                                        
E|-----------------------------------|-----------------------------------|
B|-----------------------------------|-----------------------------------|
G|-9--9---12---8---------------------|-7--7--7---6-----------------------|
D|-9--9---12---8---------------------|-7--7--7---6-----------------------|
A|-7--7---10---6---------------------|-5--5--5---4-----------------------|
E|-----------------------------------|-----------------------------------|


                                                       Only repeat thesex3
E|-----------------------------------|-----------------------------------|
B|-----------------------------------|-----------------------------------|
G|-9--9---12---8-----8---------------|-7--7--7---6------6----------------|
D|-9--9---12---8-----8---------------|-7--7--7---6------6----------------|
A|-7--7---10---6-----6---------------|-5--5--5---4------4----------------|
E|-----------------------------------|-----------------------------------|



1:56-2:10
---------
 Staccato
E|-----------------------------------|-----------------------------------|
B|-----------------------------------|-----------------------------------|
G|-9--9--8--8--7--7--6--6------------|-----------------------------------|
D|-9--9--8--8--7--7--6--6------------|-8--6--8--8--6--8--8--6--8--8--10--|
A|-7--7--6--6--5--5--4--4------------|-6--4--6--6--4--6--6--4--6--6--8---|
E|-----------------------------------|-----------------------------------|
comments
We did not receive enough feedback on this tab! Please rate:
print report bad tab
1 2 3 4 5
1 comment total.
+2 reply
smartin6988 wrote on May 31 2009, 12:56 pm

good tab, but creepy song

I want to post or [tab]
guest
You may want to rate the tab now too:
select rating
Please do not post tabs as comments. Select "correction" instead!