Oops, an error
Loading. Please wait.

Waiting Hare Tab

version 1
version 1

Whole song

Interactive

4,594 views 6 this week
1 commentread comment
1 2 3 4 5
please rate
add to favorites
launch autoscroll
font size
0
reset
how to read this tab
guitar tuner
Autoscroll
slow
fast
+/-
esc
set tempo
stop
Help us to improve Ultimate-Guitar.com Take our survey!
×
                                 Waiting Hare                                   


                                                                      Buckethead
Buckethead



     S S S S S S S S S S S S S S S S    S S S S S S S S S S S S S S S S  
E||------------------5-L-------------|------------------5-L-------------|
B||----------7-L---------7-L-----7-L-|----------7-L---------7-L-----7-L-|
G||------7-L-----7-L---------7-L-----|------7-L-----7-L---------7-L-----|
D||--5-L-----------------------------|--4-L-----------------------------|
A||----------------------------------|----------------------------------|
E||----------------------------------|----------------------------------|


  S S S S S S S S S S S S S S S S    S S S S S S S S S S S S S S S S  
------------------0-L-------------|------------------0-L-------------|
----------3-L---------3-L-----3-L-|----------3-L---------3-L-----3-L-|
------0-L-----0-L---------0-L-----|------0-L-----0-L---------0-L-----|
----------------------------------|----------------------------------|
--2-L-----------------------------|--3-L-----------------------------|
----------------------------------|----------------------------------|


  S S S S S S S S S S S S S S S S    S S S S S S S S S S S S S S S S  
------------------5-L-------------|------------------5-L-------------|
----------7-L---------7-L-----7-L-|----------7-L---------7-L-----7-L-|
------7-L-----7-L---------7-L-----|------7-L-----7-L---------7-L-----|
--5-L-----------------------------|--4-L-----------------------------|
----------------------------------|----------------------------------|
----------------------------------|----------------------------------|


  S S S S S S S S S S S S S S S S    S S S S S S S S S S S S S S S S  
------------------0-L-------------|------------------0-L-------------|
----------3-L---------3-L-----3-L-|----------3-L---------3-L-----3-L-|
------0-L-----0-L---------0-L-----|------0-L-----0-L---------0-L-----|
----------------------------------|----------------------------------|
--2-L-----------------------------|--3-L-----------------------------|
----------------------------------|----------------------------------|


  S S S S S S S S S S S S S S S S    S S S S S S S S S S S S S S S S  
------------------5-L-------------|------------------5-L-------------|
----------7-L---------7-L-----7-L-|----------7-L---------7-L-----7-L-|
------7-L-----7-L---------7-L-----|------7-L-----7-L---------7-L-----|
--5-L-----------------------------|--4-L-----------------------------|
----------------------------------|----------------------------------|
----------------------------------|----------------------------------|


  S S S S S S S S S S S S S S S S    S S S S S S S S S S S S S S S S  
------------------0-L-------------|------------------0-L-------------|
----------3-L---------3-L-----3-L-|----------3-L---------3-L-----3-L-|
------0-L-----0-L---------0-L-----|------0-L-----0-L---------0-L-----|
----------------------------------|----------------------------------|
--2-L-----------------------------|--3-L-----------------------------|
----------------------------------|----------------------------------|


  S S S S S S S S S S S S S S S S    S S S S S S S S S S S S S S S S  
------------------5-L-------------|------------------5-L-------------|
----------7-L---------7-L-----7-L-|----------7-L---------7-L-----7-L-|
------7-L-----7-L---------7-L-----|------7-L-----7-L---------7-L-----|
--5-L-----------------------------|--4-L-----------------------------|
----------------------------------|----------------------------------|
----------------------------------|----------------------------------|


  S S S S S S S S S S S S S S S S    S S S S S S S S S S S S S S S S  
------------------0-L-------------|------------------0-L-------------|
----------3-L---------3-L-----3-L-|----------3-L---------3-L-----3-L-|
------0-L-----0-L---------0-L-----|------0-L-----0-L---------0-L-----|
----------------------------------|----------------------------------|
--2-L-----------------------------|--3-L-----------------------------|
----------------------------------|----------------------------------|


  S S S S S S S S S S S S S S S S    S S S S S S S S S S S S S S S S  
------------------5-L-------------|------------------5-L-------------|
----------7-L---------7-L-----7-L-|----------7-L---------7-L-----7-L-|
------7-L-----7-L---------7-L-----|------7-L-----7-L---------7-L-----|
--5-L-----------------------------|--4-L-----------------------------|
----------------------------------|----------------------------------|
----------------------------------|----------------------------------|


  S S S S S S S S S S S S S S S S    S S S S S S S S S S S S S S S S  
------------------0-L-------------|------------------0-L-------------|
----------3-L---------3-L-----3-L-|----------3-L---------3-L-----3-L-|
------0-L-----0-L---------0-L-----|------0-L-----0-L---------0-L-----|
----------------------------------|----------------------------------|
--2-L-----------------------------|--3-L-----------------------------|
----------------------------------|----------------------------------|


  S S S S S S S S S S S S S S S S    S S S S S S S S S S S S S S S S  
------------------5-L-------------|------------------5-L-------------|
----------7-L---------7-L-----7-L-|----------7-L---------7-L-----7-L-|
------7-L-----7-L---------7-L-----|------7-L-----7-L---------7-L-----|
--5-L-----------------------------|--4-L-----------------------------|
----------------------------------|----------------------------------|
----------------------------------|----------------------------------|


  S S S S S S S S S S S S S S S S    S S S S S S S S S S S S S S S S  
------------------0-L-------------|------------------0-L-------------|
----------3-L---------3-L-----3-L-|----------3-L---------3-L-----3-L-|
------0-L-----0-L---------0-L-----|------0-L-----0-L---------0-L-----|
----------------------------------|----------------------------------|
--2-L-----------------------------|--3-L-----------------------------|
----------------------------------|----------------------------------|


    S S S S S S S S  S  S S S  S  S S S  
|-------------------10--L-----10--L-----|
|-----------7-L-8-L-------8-L-------8-L-|
|*--------------------------------------|
|*------9-L-----------------------------|
|---7-L---------------------------------|
|---------------------------------------|


  S S S S  S  S S S  S  S S S  S  S S S  4x   S  S  S  S  S  E.  Q     
----------10--L-----10--L-----10--L------||---------------------------|
----------------8-L-------8-L-------8-L--||---------------------------|
----------------------------------------*||*--------------------------|
------9-L-------------------------------*||*--------------------------|
--9-L------------------------------------||---0h-2h-5p-2p-0h----------|
-----------------------------------------||------------------3---0----|


  E  S E  S E  S E.     S  S  S  S  S  E.  Q       E  E  S E  S E  E     
--0--0-0--0-0--0-0---|--------------------------|--3--3--3-3--3-3--3---||
--0--0-0--0-0--0-0---|--------------------------|--1--1--1-1--1-1--1---||
--0--0-0--0-0--0-0---|--------------------------|--0--0--0-0--0-0--0--*||
--2--2-2--2-2--2-2---|--------------------------|--2--2--2-2--2-2--2--*||
--2--2-2--2-2--2-2---|--0h-2h-5p-2p-0h-----3----|--3--3--3-3--3-3--3---||
--0--0-0--0-0--0-0---|-----------------3--------|----------------------||




Duration Legend
---------------
W - whole
H - half
Q - quarter
E - 8th
S - 16th
T - 32nd
X - 64th
. - note dotted
|-n-|  - n-tuplets


Tablature Legend
----------------
L - tied note
x - dead note
g - grace note
(n) - ghost note
> - accentuded note
NH - natural harmonic
AH - artificial harmonic
TH - tapped harmonic
SH - semi harmonic
PH - pitch harmonic
h - hammer on
p - pull off
b - bend
br - bendRelease
pb - preBend
pbr - preBendRelease
brb - bendReleaseBend
\n/ - tremolo bar dip
\n - tremolo bar dive
-/n - tremolo bar Release up
/n\ - tremolo bar inverted dip
/n - tremolo bar return
-\n - tremolo bar Release down
S - shift slide
s - legato slide
/ -  slide into from below or out of upwards
\ -  slide into from above or out of downwards
~ - vibrato
W - wide vibrato
tr - trill
TP - tremolo picking
T - tapping
S - slap
P - pop
< - fade in
^ - brush up
v - brush down

-----------------
    -Shinobi-    
-----------------

Shinobi@shinopix.com
Suggest correction
Give kudos to tab author, rate the tab!
1 2 3 4 5
comments
print report bad tab
1 comment total.
0 reply
gRiLeD cHiKen 80 wrote on June 2 2008, 01:42 am

Really confusing for me....with all th "L"s and "S"s. I know you added a legend but its all the way at the bottom and its hard for people to scroll up and down to search for the meaning. I think it would be easier to read if you removed the letters and complex symbols.

guest
You may want to rate the tab now too:
select rating
Please do not post tabs as comments. Select "correction" instead!