Oops, an error
Loading. Please wait.

Want Some Slaw Tab

version 3
version 3

Whole song

2,842 views 1 this week
1 commentread comment
1 2 3 4 5
accurate
x 4
add to favorites
launch autoscroll
font size
0
reset
how to read this tab
guitar tuner
Tab Pro tools
  • play this tab
  • loop segment
  • change instrument
  • show fretboard
  • metronome
×
Best way to learn
"Want Some Slaw"
Autoscroll
slow
fast
+/-
esc
set tempo
stop
Contributor
------------------------------------------------------------------------|
------------------------------------------------------------------------|
--7--10-9-----------7--10-9h10p9----------7-10-9-6-9-8-5-8-7------------|
------------------------------------------------------------------------|
------------4---3----------------------4--3-----------------------------|
------------2---1----------------------2--1-----------------------------|

------------------------------------------------------------------------|
------------------------------------------------------------------------|
--7--10-9-----------7--10-9h10p9----------7-10-9-6-9-8-5-8-7------------|
------------------------------------------------------------------------|
------------4---3----------------------4--3-----------------------------|
------------2---1----------------------2--1-----------------------------|

------------------------------------------------------------------------|
------------------------------------------------------------------------|
--7--10-9-----------7--10-9h10p9----------7-10-9-6-9-8-5-8-7------------|
------------------------------------------------------------------------|
------------4---3----------------------4--3-----------------------------|
------------2---1----------------------2--1-----------------------------|

-------------------------------------------------------------------------|
-------------------------------------------------------------------------|
--h19h15-----h19h15------h19h15------h17h14------15-12-----15-12---------|
--------h17---------h17---------h17----------15---------13--------13-----|
-------------------------------------------------------------------------|
-------------------------------------------------------------------------|

-----------------------------------------------------------------------|
-----------------------------------------------------------------------|
-15-12------17-14------------------------------------------------------|
-------13----------15--------------------------------------------------|
-----------------------------------------------------------------------|
-----------------------------------------------------------------------|

------------------------------------------------------------------------|
----------------------------------------10--11--10----------------------|
----------------------------------------10--10--10----------------------|
------------------------------------------------------------------------|
--5--5--()-()--5--5--()-()--5-5--()-()----------------------------------|
--3--3--()-()--3--3--()-()--3-3--()-()----------------------------------|

------------------------------------------------------------------------|
----------------------------------------15--16--15----------------------|
----------------------------------------15--15--15----------------------|
------------------------------------------------------------------------|
--5--5--()-()--5--5--()-()--5-5--()-()----------------------------------|
--3--3--()-()--3--3--()-()--3-3--()-()----------------------------------|
Play that a few times
play the main riff
the solo/lead part comes
SOLO
------------------------------------------------------------------------------|
------------------------------15-13-11----------------------------------------|
-14---12--10---12-14-------------------14~-----14--12--10--12-14--------------|
-----------------------12--------------------------------------------12-------|
------------------------------------------------------------------------------|
------------------------------------------------------------------------------|

----------------------------------------------------------------------------|
----------------------------------------------------------------------------|
---------10---7~------------------------------------------------------------|
-7--10----------------------------------------------------------------------|
-----------------------------------10-11-13-11-10-----10-11-13-15-----------|
--------------------------8-11-13------------------13-----------------------|

--------------------------------------------------------------------------|
--------------------------------------------------------------------------|
---------------------------------------13-15-17-15-13---------------------|
----------------------------13-15-17-------------------17-15-13--9--------|
-16-15-13-------13-15-16--------------------------------------------------|
------------16------------------------------------------------------------|

------------------------------------------------------------------------|
------------------------------------------------------------------------|
-12-(half step bend)-----13---------------------------------------------|
-----------------------------17-15-13-15-17--13-(1 step bend)-----------|
------------------------------------------------------------------------|
------------------------------------------------------------------------|

----------------------13--------------------13-15-16-15-16-15-13--------|
--13-14-16-13-14-16-----16-14-13--14-16---------------------------------|
------------------------------------------------------------------------|
------------------------------------------------------------------------|
------------------------------------------------------------------------|
------------------------------------------------------------------------|

------------------------------------------------------------------------------|
-16-14-13-14-16-14-13-----13--------------------------------------------------|
-------------------------15----15-13-15-13-12---------------------------------|
------------------------------------------------15-13-11----------------------|
-----------------------------------------------------------15-13-11-----------|
------------------------------------------------------------------------------|

---------------------------------------------------------------------------|
---------------------------------------------------------------------------|
---------------------------------------------------------------------------|
---------------------------------------------------------------------------|
---------------------------------------------------------------------------|
-15-13-11-13-15--16-16~~---------------------------------------------------|
Next riff


---------------------------------------------------------------------------|
---------------------------------------------------------------------------|
---------------------------------------------------------------------------|
---------------------------------------------------------------------------|
--4-------4--------------4---------------4-------------4---------3~--------|
--2--4/---2--2-2---4/----2---2-2-2--4/--2---2-2--4/---2--2-2-2-------------|
a couple of times
next riff
----------------------------------------------------------------------------|
-9-9------10-10-----11-11---------------------------------------------------|
------11--------12---------13/0---------------------------------------------|
----------------------------------------------------------------------------|
----------------------------------------------------------------------------|
----------------------------------------------------------------------------|


thats all I could know so far theres some things still mising
comments
print report bad tab
1 comment total.
+1 reply
nave321 wrote on October 15 2010, 12:08 pm

I think

--7--10-9-----------7--10-9h10p9----------7-10-9-6-9-8-5-8-7------------|
------------------------------------------------------------------------|
------------4---3----------------------4--3-----------------------------|
------------2---1----------------------2--1-----------------------------|

should be
--8--11-10-----------8--11-10h11p10----------8-11-10-7-10-9-6-9-8------------|
------------------------------------------------------------------------|
------------4---3----------------------4--3-----------------------------|
------------2---1----------------------2--1-----------------------------|

I want to post or [tab]
guest
You may want to rate the tab now too:
select rating
Please do not post tabs as comments. Select "correction" instead!