Oops, an error
Loading. Please wait.

Watching The Boats With My Dad Tab

version 1
version 1

Whole song

Interactive

15,521 views 24 this week
3 commentsread comments
1 2 3 4 5
excellent!
x 10
add to favorites
launch autoscroll
font size
0
reset
how to read this tab
guitar tuner
Tab Pro tools
  • play this tab
  • loop segment
  • change instrument
  • show fretboard
  • metronome
×
Best way to learn
"Watching The Boats With My Dad"
Autoscroll
slow
fast
+/-
esc
set tempo
stop
Contributor
Difficulty
advanced
Tune Down:
6th=Eb 5th=Ab 4th=Db 3rd=Gb 2nd=Bb 1st=Eb

E--0-----2-----2-------------------------------------------------------|
B--2-----2-----3-----3---2---------------------------------------------|
G--2-----2-----2-----2---2---------------------------------------------|
D--2-----6-----0-----4---2---------------------------------------------|
A--0-----4-----------0---0---------------------------------------------|
E--0-----2-------------------------------------------------------------|


E----------------------------------------------------------------------|
B----9-10--------------9-9h10--------------9-10-----------3--2---------|
G---x-----9-s6~-------x-------9-s6~-------x-----9-s6~-----2--2---------|
D--x-----------------x-------------------x----------------4--2---------|
A-x-----------------x-------------------x-----------------0--0---------|
E----------------------------------------------------------------------|

E----------------------------------------------------------------------|
B----9-10--------------9-10--------------9-10-----------3--2-----------|
G---x-----9-s6~-------x-----9-s6~-------x-----9-s6~-----2--2-----------|
D--x-----------------x-----------------x----------------4--2-----------|
A-x-----------------x-----------------x-----------------0--0-----------|
E----------------------------------------------------------------------|

E----------------------------------------------------------------------|
B----9h10p9-----------------9h10-12p10--9-9~---------------------------|
G---x-------9--------------x-------------------------------------------|
D--x----------9~--9s11~---x--------------------------------------------|
A-x----------------------x---------------------------------------------|
E----------------------------------------------------------------------|

E----------------------------------------------------------------------|
B----9h10p9------------------------9h10-10h12p10--9-9~-----------------|
G---x-------9---------------------x------------------------------------|
D--x----------9~--11s14s11~------x-------------------------------------|
A-x-----------------------------x--------------------------------------|
E----------------------------------------------------------------------|

/slide
E----------------------------------------------------------------------|
B----9~--10-h12-12~-p10-10~--14-14--12-10--9-9-h10-------9--10----3--2-|
G--------------------------------------------------9~--6-------9~-2--2-|
D-11--------------------------------------------------------------4--2-|
A-----------------------------------------------------------------0--0-|
E----------------------------------------------------------------------|

E----------------------------------------------------------------------|
B----9-10--------------9-10--------------9-10-----------3--2-----------|
G---x-----9s-6~-------x-----9--6~-------x-----9-s6~-----2--2-----------|
D--x-----------------x-----------------x----------------4--2-----------|
A-x-----------------x-----------------x-----------------0--0-----------|
E----------------------------------------------------------------------|

E----------------------------------------------------------------------|
B----9h10p9----------------10h12p10--9~--------9h10p9------------------|
G---x-------9---------------------------------x-------9----------------|
D--x----------9--9s11~-----------------------x----------9--11s14s11~---|
A-x-----------------------------------------x--------------------------|
E----------------------------------------------------------------------|

E----------------------------------------------------------------------|
B----9~---9-10-10h12p10~-----------------------------------------------|
G---x------------------------------------------------------------------|
D--x-------------------------------------------------------------------|
A-x--------------------------------------------------------------------|
E----------------------------------------------------------------------|

E----------------------------------------------------------------------|
B----9~--10-12-12~--10-10~--14-14--12-10-10~--9-9-9h10~----9-10----3-2-|
G---------------------------------------------------------------9~-2-2-|
D-11----------------------------------------------------11---------4-2-|
A------------------------------------------------------------------0-0-|
E----------------------------------------------------------------------|

E--------------------------------------------------------9-------------|
B-----------------------9-9s7--7~-----9-9--10-12--12s10-10-------------|
G--6--7---9-----11---9--9-9s7--7~-----9-9--11-13--13s11----------------|
D--7--9--11-----12--11-------------------------------------------------|
A-(0)------------------------------------------------------------------|
E----------------------------------------------------------------------|

E----------------------------------------------------------------------|
B-10p9-----------------------------------------------------------------|
G------9---------------------------------------------------------------|
D--------9-------------------------------------------------------------|
A-----------11s12--9s11~-----------------------------------------------|
E----------------------------------------------------------------------|

E-----------------------------------------7s5------9~--7--7-(s5)--5-5--|
B-----------------9-10-12--10-9--9--10~---9s7-s10-10~--9--9-(s7)--7-7--|
G--6-7---9--9~----9-11-13--11-9--9--11~--------------------------------|
D--7-9--11-11~---------------------------------------------------------|
A-(0)------------------------------------------------------------------|
E----------------------------------------------------------------------|

E----------------------------------------------------------------------|
B---9h10p9-------------------------------------------------------------|
G--x-------9-----------------------------------------------------------|
D-x----------9--9s11~--------------------------------------------------|
A----------------------------------------------------------------------|
E----------------------------------------------------------------------|

E-14~--14-14-14~--17-17~---14~--12~---9-9-10-s5~---9-------------------|
B----------------------------------------------------10~---------------|
G----------------------------------------------------------------------|
D----------------------------------------------------------------------|
A----------------------------------------------------------------------|
E----------------------------------------------------------------------|

E----------------------------------------------------------------------|
B-9h10p9---------------------------------------------------------------|
G--------11--7h9-------------------------------------------------------|
D----------------7h9-9s11~---------------------------------------------|
A----------------------------------------------------------------------|
E----------------------------------------------------------------------|

E-------------9--------------------------------------------------------|
B-10~-10~----x--12-10-10-10p9--9-9-9~-----9-10-12-12~------------------|
G-----------x----------------------------------------------------------|
D----------------------------------------------------------------------|
A----------------------------------------------------------------------|
E----------------------------------------------------------------------|

E----------------------------------------------------------------------|
B---------9h10---10h12-9-----------------------------------------------|
G----9-11-----------------9---------9h11-9------------9s11-9-----------|
D-11------------------------9-11-12---------11s9---7~-------11s9-------|
A----------------------------------------------------------------------|
E----------------------------------------------------------------------|

E----------------------------------------------------------------------|
B-9h10p9---------------------------------------------------------------|
G--------9-------------------------------------------------------------|
D----------9s11~-------------------------------------------------------|
A----------------------------------------------------------------------|
E----------------------------------------------------------------------|

E----------------------------------------------------------------------|
B---9h10p9-------------------------------------------------------------|
G--x-------9-----------------------------------------------------------|
D-x----------9--9s11~--------------------------------------------------|
A----------------------------------------------------------------------|
E----------------------------------------------------------------------|


Enjoy
comments
print report bad tab
3 comments total.
+2 reply
tyler_j wrote on December 18 2007, 01:31 am

this is pretty good

+3 reply
Milkywaykid1 wrote on July 16 2008, 01:34 pm

beautiful song... good job

+1 reply
mr. awesome001 wrote on February 26 2010, 01:34 am

thank you for posting this song. its simply a beautiful song and it needed to be posted

I want to post or [tab]
guest
You may want to rate the tab now too:
select rating
Please do not post tabs as comments. Select "correction" instead!