Oops, an error
Loading. Please wait.

We Are One Tab

version 1
version 1

Solo

Whole song

Interactive

2,538 views 1 this week
4 commentsread comments
1 2 3 4 5
2 more votes to show rating
add to favorites
launch autoscroll
font size
0
reset
how to read this tab
guitar tuner
Autoscroll
slow
fast
+/-
esc
set tempo
stop
Help us to improve Ultimate-Guitar.com Take our survey!
×
Author
Difficulty
advanced
Tabbed By Claire Wilcox

Glittery_burnincinders@hotmail.com

A little more difficult, i was gonna put the whole song up but there is already decent 
on here ;)

riff from 0:41 ~ 0:55

note: Buckethead either plays this with an octaver or there's two parts dubbed over each 
I've tabbed both high and low parts (an octave apart). Also, lightly palm mute 
The rest of the song is up to you.


Higher part:

e|-------------------------------------6-------|
B|-----------8---8-----------6-8-9-8-9---------|
G|----5---5---------5----7-8-------------------|
D|---------------------------------------------|
A|---------------------------------------------|
E|---------------------------------------------|


e|----------------------8-6-----6-------------|
B|-----------8---8----------9-8---9-8-6-------|
G|----5---5---------5-------------------------|
D|--------------------------------------------|
A|--------------------------------------------|
E|--------------------------------------------|

Lower part:

e|---------------------------------------------|
B|---------------------------------------------|
G|-------------------------------------3-------|
D|-----------5---5-----------3-5-6-5-6---------|
A|----3---3---------3----5-6-------------------|
E|---------------------------------------------|


e|---------------------------------------------|
B|---------------------------------------------|
G|-----------------------5-3-----3-------------|
D|-----------5---5-----------6-5---6-5-3-------|
A|----3---3---------3--------------------------|
E|---------------------------------------------|
Suggest correction
Give kudos to tab author, rate the tab!
1 2 3 4 5
comments
print report bad tab
4 comments total. Showing first comments.
0 reply
petrifiedmonkey 144 Aug 07, 2007 11:35 PM

you stole this from binge and grab, ass

0 reply
postofficebuddy 22 Aug 08, 2007 11:10 AM

no i didnt, ass.

0 reply
Td_Nights 176 Nov 30, 2007 12:56 PM

We Are One
from 'Enter The Chicken'

tabbed by Nick Di Cresce

riff from 0:41 ~ 0:55 (the really quick bumpin'
one)

note: Buckethead either plays this with an octaver or there's two parts dubbed over each other. I've tabbed both
high and low parts (an octave apart). Also, lightly palm mute everything. The rest of the song is up to you.

s: these
are all sixteenth notes



Higher part:
s s s s s s s
s
e|-------------------------------------6-------|
B|-----------8---8-----------6-8-9-8-9---------|
G|----5---5------
---5----7-8-------------------|
D|---------------------------------------------|
A|-----------------------------------
----------|
E|---------------------------------------------|



s s s s s s s
s
e|----------------------8-6-----6-------------|
||
B|-----------8---8----------9-8---9-8-6-------|o||
G|----5---5---------5-------------------------| || x
whatever
D|--------------------------------------------|
||
A|--------------------------------------------|o||
E|--------------------------------------------| ||



Lower
part:
s s s s s s s
s
e|---------------------------------------------|
B|---------------------------------------------|
G|---------------
----------------------3-------|
D|-----------5---5-----------3-5-6-5-6---------|
A|----3---3---------3----5-6---------
----------|
E|---------------------------------------------|



s s s s s s s
s
e|---------------------------------------------|
||
B|---------------------------------------------|o||
G|-----------------------5-3-----3-------------| || x
whatever
D|-----------5---5-----------6-5---6-5-3-------|
||
A|----3---3---------3--------------------------|o||
E|---------------------------------------------|
||

---------------------------------------------------------------------

That is the one from
Bingeandgrab.com.

Alot of similarities, but you didn't steal it? Like how that paragraph above is word for
word?

You just cut some parts out so it didn't seem like you did, douche.

guest
You may want to rate the tab now too:
select rating
Wanna post a correction for this tab? Suggest correction