Oops, an error
Loading. Please wait.

Welcome To Buckethead Land solo tab

version 1
version 1

Solo

  • The only other tab that includes the solo (that is... Show more

Whole song

Interactive

166 views 9 this week
no commentswrite comment
1 2 3 4 5
3 more votes to show rating
add to favorites
×
Save as Personal and add changes to this tab that will be seen only by you. Learn more ›
×
You can save this tab as Personal to edit and correct it or add notes. All changes will be seen only by you. Learn more »
launch autoscroll
font size
0
reset
how to read this tab
guitar tuner
edit
Autoscroll
slow
fast
+/-
esc
set tempo
stop
Difficulty
About this tab version
The only other tab that includes the solo (that is correct, at least) does not tab the very end of the solo correctly, and this tab was written note for note after listening to the song at very slow speeds to ensure accuracy and it can be assured that it is as close as possible to the original playing of the song. Was this info helpful? Yes No
(THIS IS ONLY THE FAST PARTS AT THE VERY END OF  THE SOLO, VERSION 5 OF THIS SONG, TABBED BY BUCKETHEAD_JR
IS CORRECT IN REGARDS TO THE REST OF THE SOLO, SO I FELT NO NEED TO TAB IT ALL OUT.)

[Fast Ending Solo]
e|-------18----------18-18h19p18---------------------------------------------|
B|----21----21-19-21-------------21-19---------------------------------------|
G|-------------------------------------20------------------------------------|
D|---------------------------------------------------------------------------| x8
A|---------------------------------------------------------------------------|
E|---------------------------------------------------------------------------|

e|----19h21p19---------------------------------------------------------------|
B|-------------21p19h21------------------------------------------------------|
G|---------------------------------------------------------------------------|
D|---------------------------------------------------------------------------| x16
A|---------------------------------------------------------------------------|
E|---------------------------------------------------------------------------|

(PLAY THIS ONCE AFTER YOU FINISH THE SECOND PART)
e|----21b22b21p19------------------------------------------------------------|
B|----------------21\--------------------------------------------------------|
G|---------------------------------------------------------------------------|
D|---------------------------------------------------------------------------|
A|---------------------------------------------------------------------------|
E|---------------------------------------------------------------------------|



************************************

| h - hammer on
| p - pull off
| b - bend
| \ - slide down

************************************
Suggest correction
Creating personal tab
Creating personal tab
You can edit any tab online and save it as your Personal.

You can edit, replace or remove any tab part or add personal notes – all changes will be seen only by you.

Personal tabs can be accessed anytime from any device, even offline.
Learn more »
Give kudos to tab author, rate the tab!
1 2 3 4 5
comments
print report bad tab
guest
Wanna post a correction for this tab? Suggest correction