Oops, an error
Loading. Please wait.

Welcome To Buckethead Land Tab

version 2
version 2

Whole song

Interactive

3,783 views 1 this week
no commentswrite comment
1 2 3 4 5
accurate
x 4
add to favorites
launch autoscroll
font size
0
reset
how to read this tab
guitar tuner
Autoscroll
slow
fast
+/-
esc
set tempo
stop
Help us to improve Ultimate-Guitar.com Take our survey!
×
Author
Difficulty
advanced
WELCOME TO BUCKETHEADLAND
By Buckethead
Tabbed by The Garage Band King
Difficulty: slightly advanced

E|--------------------------------------------------------|x4
B|--------------------------------------------------------|
G|--------------------------------------------------------|
D|--------------5p0h5p0--4p0h4p0--------------------------|
A|-----5p2h5p2--------------------4p0h4p0--0--4--5--------|
E|--------------------------------------------------3-----|

E|-----------------------------------------------------|
B|-----------------------------------------------------|
G|-----------------------------------------------------|
D|--------------------------------------------7--5-----|
A|--------4-----5-----4-----------4--5-----------------|
E|--2--2-----2-----2--------3--3--------3--3-----------|

E|-------------------------------------------------|
B|-------------------------------------------------|
G|-------------------------------------------------|
D|-----------------------------------------7\1-----|
A|--------4-----5-----4-----------4--5-------------|
E|--2--2-----2-----2--------3--3--------3----------|

E|-----------------------------------------------------|
B|-----------------------------------------------------|
G|-----------------------------------------------------|
D|--------------------------------------------7--5-----|
A|--------4-----5-----4-----------4--5-----------------|
E|--2--2-----2-----2--------3--3--------3--3-----------|

E|-------------------------|
B|-------------------------|
G|-------------------------|
D|-------------------------|
A|--------4-----5-----4----|
E|--2--2-----2-----2-----2-|

E|------------------------------|x4
B|------------------------------|
G|------------------------------|
D|--4----2--4----2--5--5--2--4--|
A|--4----2--4----2--5--5--2--4--|
E|--2----0--2----0--3--3--0--2--|

E|--------------------------------------------------------|x4
B|--------------------------------------------------------|
G|--------------------------------------------------------|
D|--------------5p0h5p0--4p0h4p0--------------------------|
A|-----5p2h5p2--------------------4p0h4p0--0--4--5--------|
E|--------------------------------------------------3-----|

E|-----------------------------------------------------|
B|-----------------------------------------------------|
G|-----------------------------------------------------|
D|--------------------------------------------7--5-----|
A|--------4-----5-----4-----------4--5-----------------|
E|--2--2-----2-----2--------3--3--------3--3-----------|

E|-------------------------------------------------|
B|-------------------------------------------------|
G|-------------------------------------------------|
D|-----------------------------------------7\1-----|
A|--------4-----5-----4-----------4--5-------------|
E|--2--2-----2-----2--------3--3--------3----------|

E|-----------------------------------------------------|
B|-----------------------------------------------------|
G|-----------------------------------------------------|
D|--------------------------------------------7--5-----|
A|--------4-----5-----4-----------4--5-----------------|
E|--2--2-----2-----2--------3--3--------3--3-----------|

E|-------------------------|
B|-------------------------|
G|-------------------------|
D|-------------------------|
A|--------4-----5-----4----|
E|--2--2-----2-----2-----2-|

E|------------------------------|x4
B|------------------------------|
G|------------------------------|
D|--4----2--4----2--5--5--2--4--|
A|--4----2--4----2--5--5--2--4--|
E|--2----0--2----0--3--3--0--2--|

E|--7v--7v--9v--9v--10v--10v--15--14--12-----|x2
B|-------------------------------------------|
G|-------------------------------------------|
D|-------------------------------------------|
A|-------------------------------------------|
E|-------------------------------------------|

E|------------------------------|x4
B|------------------------------|
G|------------------------------|
D|--4----2--4----2--5--5--2--4--|
A|--4----2--4----2--5--5--2--4--|
E|--2----0--2----0--3--3--0--2--|

E|--------------------------------------------------------|x4
B|--------------------------------------------------------|
G|--------------------------------------------------------|
D|--------------5p0h5p0--4p0h4p0--------------------------|
A|-----5p2h5p2--------------------4p0h4p0--0--4--5--------|
E|--------------------------------------------------3-----|

E|-----------------------------------------------------|
B|-----------------------------------------------------|
G|-----------------------------------------------------|
D|--------------------------------------------7--5-----|
A|--------4-----5-----4-----------4--5-----------------|
E|--2--2-----2-----2--------3--3--------3--3-----------|

E|-------------------------------------------------|
B|-------------------------------------------------|
G|-------------------------------------------------|
D|-----------------------------------------7\1-----|
A|--------4-----5-----4-----------4--5-------------|
E|--2--2-----2-----2--------3--3--------3----------|

E|-----------------------------------------------------|
B|-----------------------------------------------------|
G|-----------------------------------------------------|
D|--------------------------------------------7--5-----|
A|--------4-----5-----4-----------4--5-----------------|
E|--2--2-----2-----2--------3--3--------3--3-----------|

E|-------------------------|
B|-------------------------|
G|-------------------------|
D|-------------------------|
A|--------4-----5-----4----|
E|--2--2-----2-----2-----2-|

E|--7v--7v--9v--9v--10v--10v--15--14--12-----|x2
B|-------------------------------------------|
G|-------------------------------------------|
D|-------------------------------------------|
A|-------------------------------------------|
E|-------------------------------------------|

E|-------------------------------------------------------------------------14-----------------|x2
B|--15--12p10h12----15-15--12p10h12--10----------15--12p10h12--17--17b--------17--15--17--15--|
G|----------------------------------------12--------------------------------------------------|
D|--------------------------------------------12----------------------------------------------|
A|--------------------------------------------------------------------------------------------|
E|--------------------------------------------------------------------------------------------|

E|-----15v--15v-15v-15v-15v-15v-15v-15v-15v-15v-15v----|
B|-----------------------------------------------------|
G|-----------------------------------------------------|
D|-----------------------------------------------------|
A|-----------------------------------------------------|
E|-----------------------------------------------------|

E|-----16p15h16p15--1919-------|
B|-----------------------------|
G|-----------------------------|
D|-----------------------------|
A|-----------------------------|
E|-----------------------------| this till the end
Suggest correction
comments
print report bad tab
guest
You may want to rate the tab now too:
select rating
Wanna post a correction for this tab? Suggest correction