Oops, an error
Loading. Please wait.

Welcome To Buckethead Land Tab

version 4
version 4

Whole song

Interactive

34,789 views 54 this week
3 commentsread comments
1 2 3 4 5
x 8
add to favorites
launch autoscroll
font size
0
reset
how to read this tab
guitar tuner
Autoscroll
slow
fast
+/-
esc
set tempo
stop
Difficulty
advanced
[Intro]
  pm--------------------------------------|
e|-------------------------------------------|
B|-------------------------------------------|
G|-------------------------------------------|
D|----------5-2-5-2-4-2-4-2----------------5-|
A|--5-2-5-2-----------------5-2-5-2--0-4-5-5-|
E|-----------------------------------------3-| x4

  pm-   pm  pm  pm-      pm-   pm-  vb
e|-------------------------------------------|
B|-------------------------------------------|
G|-------------------------------------------|
D|----------------------------7-----5--------|
A|-----4---5---4-----4-5---------------------|
E|-2-2---2---2---3-3------3-3---3-3----------|

  pm-   pm  pm
e|--------------------------------------------|
B|--------------------------------------------|
G|--------------------7-6-4-------------------|
D|---------------5-5--------7-5-4-------------|
A|-----4---5---4-5-5--------------7-5-4-------|
E|-2-2---2---2---3-3--------------------7-5-4-|

  pm-   pm  pm   pm-    pm-    pm- vb
e|--------------------------------------------|
B|--------------------------------------------|
G|--------------------------------------------|
D|---------------------------7-----5----------|
A|-----4---5---4-----4-5----------------------|
E|-2-2---2---2---3-3-----3-3---3-3------------|

e|--------------------------------------------|
B|--------------------------------------------|
G|--------------------------------------------|
D|---------------5----------------------------|
A|-----4---5---4-5----------------------------|
E|-2-2---2---2---3----------------------------|

          pm
e|--------------|
B|--------------|
G|--------------|
D|-4-0-4-5-5-4--|
A|-4-2-4-5-5-4--|
E|-2---2-3-3-2--| x4 Chorus

(repeat from intro 1 time)

[Interlude]
    su                      su                      su
e|--------------------------------------------------------------------------|
B|--12-12-12-12-12-12-12-12-14-14-14-14-14-14-14-14-15-15-15-15-15-15-15-15-|
G|--------------------------------------------------------------------------|
D|--------------------------------------------------------------------------|
A|--------------------------------------------------------------------------|
E|--------------------------------------------------------------------------|

  su          su          su       sd
e|15-15-15-15-14-14-14-14-12-12-12-12---------|
B|--------------------------------------------|
G|--------------------------------------------|
D|--------------------------------------------|
A|--------------------------------------------|
E|--------------------------------------------|

[Repeat interlude 1 time]
          pm
e|--------------|
B|--------------|
G|--------------|
D|-4-0-4-5-5-4--|
A|-4-2-4-5-5-4--|
E|-2---2-3-3-2--| x4 Chorus

[Intro]
  pm-------------------------------------|
e|-------------------------------------------|
B|-------------------------------------------|
G|-------------------------------------------|
D|----------5-2-5-2-4-2-4-2----------------5-|
A|--5-2-5-2-----------------5-2-5-2--0-4-5-5-|
E|-----------------------------------------3-| x4

  pm-   pm  pm  pm-      pm-   pm-  vb
e|-------------------------------------------|
B|-------------------------------------------|
G|-------------------------------------------|
D|----------------------------7-----5--------|
A|-----4---5---4-----4-5---------------------|
E|-2-2---2---2---3-3------3-3---3-3----------|

  pm-   pm  pm
e|--------------------------------------------|
B|--------------------------------------------|
G|--------------------7-6-4-------------------|
D|---------------5-5--------7-5-4-------------|
A|-----4---5---4-5-5--------------7-5-4-------|
E|-2-2---2---2---3-3--------------------7-5-4-|

  pm-   pm  pm   pm-    pm-    pm- vb
e|--------------------------------------------|
B|--------------------------------------------|
G|--------------------------------------------|
D|---------------------------7-----5----------|
A|-----4---5---4-----4-5----------------------|
E|-2-2---2---2---3-3-----3-3---3-3------------|

e|--------------------------------------------|
B|--------------------------------------------|
G|--------------------------------------------|
D|---------------5----------------------------|
A|-----4---5---4-5----------------------------|
E|-2-2---2---2---3----------------------------|

[Interlude]
    su                      su                      su
e|--------------------------------------------------------------------------|
B|--12-12-12-12-12-12-12-12-14-14-14-14-14-14-14-14-15-15-15-15-15-15-15-15-|
G|--------------------------------------------------------------------------|
D|--------------------------------------------------------------------------|
A|--------------------------------------------------------------------------|
E|--------------------------------------------------------------------------|

  su          su          su       sd
e|15-15-15-15-14-14-14-14-12-12-12-12---------|
B|--------------------------------------------|
G|--------------------------------------------|
D|--------------------------------------------|
A|--------------------------------------------|
E|--------------------------------------------|
Suggest correction
comments
print report bad tab
3 comments total.
-1 reply
Flash33 31 Mar 30, 2007 09:29 PM

i think you have the wrong notes on the part after the "crazy train" riff... after you do the riff i think it goes, but thats just me

E|
B|
G|--4p2p0
D|--------4p2p0
A|--------------4p2p0
E|

0 reply
HC-Deathroll 41 Jan 11, 2008 08:46 AM

well you're wrong. He's right except the last note on the E is on the 3rd fret, not the
4th.
|----------------|---------------------------------|
|----------------|---------------------------------|
|-----
-----------|---------7-6-4-------------------|
|----------------|---------------7-5-4-------------|
|-----4---5---4--|
-5-5-----------------7-5-4-------|
|-2-2---2---2----|-3-3-----------------------7-5-3-|

+1 reply
HC-Deathroll 41 Jan 11, 2008 08:47 AM

Agh i dont know what the heck happened.

|----------------|---------------------------------|
|----------------|---------------------------------|
|----------------|---------7-6-4-------------------|
|----------------|---------------7-5-4-------------|
|-----4---5---4--|-5-5-----------------7-5-4-------|
|-2-2---2---2----|-3-3-----------------------7-5-3-|

guest
You may want to rate the tab now too:
select rating
Wanna post a correction for this tab? Suggest correction