Oops, an error
Loading. Please wait.
We have an official Whitewash tab made by UG professional guitarists. Check out the tab »
×

Whitewash Live tab

version 3
version 3

Whole song

  • This is for a different live version to the other tabs.

Interactive

208 views 6 this week
2 commentsread comments
1 2 3 4 5
x 3
add to favorites
×
Save as Personal and add changes to this tab that will be seen only by you. Learn more ›
×
You can save this tab as Personal to edit and correct it or add notes. All changes will be seen only by you. Learn more »
launch autoscroll
font size
0
reset
how to read this tab
guitar tuner
backing track
0:00
0:00
edit
Autoscroll
slow
fast
+/-
esc
set tempo
stop
About this tab version
This is for a different live version to the other tabs. Was this info helpful? Yes No
"WHITEWASH"
by Buckethead


tabbed by:    DropDeee
tuning:       Half-step down
effects:      Delay, low tone
video:        https://www.youtube.com/watch?v=zLYzjwPD03o



           ***   This is for the live version of Whitewash, performed   ***
                            at the 2006 Langerado Festival 


                       ***   backing track now available   ***
                     https://www.youtube.com/watch?v=uQcC3drmQoQ



 [Intro]

D#|------------------------|------------------------|-------------------------|---------------|
A#|-----------------8---7--|-----------------7------|-----------------10---8--|---------------|
F#|-----------7------------|-----------7---------7--|-----------7-------------|--6---6h7p6-4--|
C#|-------11---------------|-------11---------------|-------11----------------|---------------| x 2
G#|-----9------------------|-----9------------------|-----9-------------------|---------------|
D#|--7---------------------|--7---------------------|--7----------------------|--5---------3--|

D#|--7h9h10----------------|------------------------|---7h9h10----------------|-------------|-------------|
A#|----------10----7-------|--7h8h10----------------|-----------10----7-------|--7h8h10-----|-------------|
F#|------------------------|----------7-------------|-------------------------|----------7--|--6---6h7p6--|
C#|------------------------|--0---------------------|-------------------------|--0----------|-------------|
G#|------------------------|------------------------|-------------------------|-------------|-------------|
D#|--7---------------------|------------------------|--7----------------------|-------------|--5----------|

 {enter drums]

D#|--7h9h10----------------|----------------------------|---7h9h10--------------|-------------|-------------|
A#|----------10----7-------|--7h8h10------(10-----10----|-----------10----7-----|--7h8h10-----|-------------|
F#|------------------------|----------7-------7h9----7)-|-----------------------|----------7--|--6---6h7p6--|
C#|------------------------|--0-------------------------|-----------------------|--0----------|-------------|
G#|------------------------|----------------------------|-----------------------|-------------|-------------|
D#|--7---------------------|----------------------------|--7--------------------|-------------|--5----------|

                                             (these notes replace the harmonics in the song)
D#|-----------------------|-----------------|--19-------------------------------19----------|
A#|-----------------------|-----------------|-------------19----------------19--------------|
F#|-----------7-----------|-----------7-----|--------19-----------------19------------------|
C#|-------11--------------|-------11--------|------------------16---------------------------|
G#|-----9-----------------|-----9-----------|----------------------16-----------------------|
D#|--7--------------------|--7--------------|-----------------------------------------------|

D#|--7h9h10---------------|------------------------|---7h9h10---------------|-------------|-------------|
A#|----------10----7------|--7h8h10----------------|-----------10----7------|--7h8h10-----|-------------|
F#|-----------------------|----------7-------------|------------------------|----------7--|--6---6h7p6--|
C#|-----------------------|--0---------------------|------------------------|--0----------|-------------|
G#|-----------------------|------------------------|------------------------|-------------|-------------|
D#|--7--------------------|------------------------|--7---------------------|-------------|--5----------|

D#|--7h9h10---------------|------------------------|---7h9h10---------------|-------------|-------------|
A#|----------10----7------|--7h8h10----------------|-----------10----7------|--7h8h10-----|-------------|
F#|-----------------------|----------7-------------|------------------------|----------7--|--6---6h7p6--|
C#|-----------------------|--0---------------------|------------------------|--0----------|-------------|
G#|-----------------------|------------------------|------------------------|-------------|-------------|
D#|--7--------------------|------------------------|--7---------------------|-------------|--5----------|

D#|-----------------------|----------------------------|-------------7--------------------------------------|
A#|-----------------------|----------------------------|-----------7-----7-----7-------------7--------------|
F#|------------7----------|------------7---------------|--------7-----------7----7-\6--7\6------------------|
C#|--------11-------------|--------11------------------|-----11---------------------------------------------|
G#|-----9-----------------|-----9----------------------|--9-------------------------------------------------|
D#|--7--------------------|--7-------------------------|----------------------------------------------------|


 [Bridge]  All the '7' bass-notes are optional but do add depth to the bridge.

D#|--7---------------------------|--7---------------------------|----------------------|--------------------|
A#|--------7----10-----8----7----|--------7----10-----8----7----|--5-----5h7---3-------|--5-----5h7---3-----|
F#|------------------------------|------------------------------|----------------------|--------------------|
C#|------------------------------|------------------------------|----------------------|--------------------|
G#|------------------------------|------------------------------|----------------------|--------------------|
D#|--7--7----7--7---7-------7--7-|--7-----7----7---7-------7--7-|--5--5--------3-------|--5--5--------3-----|

D#|--7--------------------------|--7--------------------------|-------------------5-------|------------------|
A#|-------7----10----8----7h8p7-|-------7----10----8---7h8p7--|--5----5h7---3-------3-----|--5----5h7---3----|
F#|-----------------------------|-----------------------------|---------------------------|------------------|
C#|-----------------------------|-----------------------------|------------------------5--|------------------|
G#|-----------------------------|-----------------------------|---------------------------|------------------|
D#|--7------7--7---7---7--7-----|--7------7--7-----7---7------|--5----------3-------------|--5----------3----|


 [Solo]

D#|---------------------------------------------------------------------------|
A#|------------------------------------------7--10----------------------------|
F#|-------7------\-------------7\6-----------------9hbr~-~~-------------------|
C#|----9--------------------9-------7------7----------------------------------|
G#|--9--------------------9-----------7/9-------------------------------------|
D#|---------------------------------------------------------------------------|

D#|----7-----------------------------------10p9-------------------------------|
A#|--7---7-10fb-(slow-release)--8p7--8-----------10---------------------------|
F#|------------------------------------7-------------7--6/7\6-----------------|
C#|------------------------------------------------------------9--g7/9~~------|
G#|---------------------------------------------------------------------------|
D#|---------------------------------------------------------------------------|

D#|----------------------------------------7p5----5---------------------------|
A#|----------------7h8p7----10---8p7-----------------5h7~~--------------------|
F#|--7/9-\7-----7---------7----------7--7--\6----6----------------------------|
C#|----------(9)--------------------------------------------------------------|
G#|---------------------------------------------------------------------------|
D#|---------------------------------------------------------------------------|

D#|-------------------------------------------------------5-------------------|
A#|-------------------------10------------------------------7~~~--------------|
F#|----7h9p7-9fb~~~~r\---------9fbrp7p6------------6---6----------------------|
C#|--9-----------------------------------7-----7h9---7------------------------|
G#|----------------------------------------7/9--------------------------------|
D#|---------------------------------------------------------------------------|

D#|---------15-14--------------------------14--17-14--15--15---15---15-17-14-------14---\--|
A#|-----15---------17-15\14----15-------15--------------------------------------15---------|
F#|--16----------------------------16------------------------------------------------------|
C#|----------------------------------------------------------------------------------------|
G#|----------------------------------------------------------------------------------------|
D#|----------------------------------------------------------------------------------------|

D#|--10--12p10-----9---10p9---12--10------------------------------------------|
A#|--12------------10----------------12\10-----10--12------10-----------------|
F#|-----------------------------------------11--------9/11----9\7--6/7\6~~~---|
C#|---------------------------------------------------------------------------|
G#|---------------------------------------------------------------------------|
D#|---------------------------------------------------------------------------|

D#|---------------------------------9h10p9-------5---5------------------------|
A#|--------------------10~~---7~~---------h10---------------------------------|
F#|---------7~~--------------------------------7--6--6h7--9fb~~---------------|
C#|----7----------9~~---------------------------------------------------------|
G#|--9----9-------------------------------------------------------------------|
D#|---------------------------------------------------------------------------|

D#|-------------------------------------------------7p5--------------------------|
A#|-----------------------------------------------------5/7~~~7~~~--(5)----------|
F#|--9fbrbr--7h9fb--7~~~fbr~~~--------7\6----6h7h9-------------------------------|
C#|---------------------------9----9------7--------------------------------------|
G#|------------------------------9-----------------------------------------------|
D#|------------------------------------------------------------------------------|


 [Outro]

D#|--7--------------------------|--7------------------------------|
A#|----------7--10----8--7h8p7--|--------7----10----8----7h8p7----|
F#|--------11---11--------------|---------------------------------|
C#|-----------------------------|---------------------------------|
G#|-----------------------------|---------------------------------|
D#|--7--7----------------7------|--7--7---7---7---7---7--7--------|   << bass notes are optional
                                                                         but they do add depth 
D#|--------------------------|-------------------|                       to the outro...
A#|--5---5h7--3------3-------|--5----5h7--3------|
F#|--------------------------|-------------------|
C#|--------------------------|-------------------|
G#|--------------------------|-------------------|
D#|--5--------3------3-------|--5--5------3------|
                     ^
                  Staccato

D#|--7---------------------------|--7---------------------------|---------------|
A#|--------7----10---8----7h8p7--|--------7----10---8----7h8p7--|--5---5h7--3---|
F#|------------------------------|------------------------------|---------------|
C#|------------------------------|------------------------------|---------------|
G#|------------------------------|------------------------------|---------------|
D#|--7--7---7---7--7--7---7------|--7--7---7---7--7--7---7------|--5--------3---| 




Enjoy :)


************************************

| /   slide up
| \   slide down
| h   hammer-on
| p   pull-off
| ~   vibrato
| b   Bend
| fb  full-bend
| fbr full-bend release
| g   grace note

************************************                        

            
            
Suggest correction
Creating personal tab
Creating personal tab
You can edit any tab online and save it as your Personal.

You can edit, replace or remove any tab part or add personal notes – all changes will be seen only by you.

Personal tabs can be accessed anytime from any device, even offline.
Learn more »
Give kudos to tab author, rate the tab!
1 2 3 4 5
comments
print report bad tab
2 comments total.
0 reply
ajanddino 935 Jan 20, 2017 08:30 PM

Sounds great!

guest
You may want to rate the tab now too:
select rating
Wanna post a correction for this tab? Suggest correction