Oops, an error
Loading. Please wait.

Who Me Tab

version 3
version 3

Whole song

Interactive

2,243 views 9 this week
no commentswrite comment
1 2 3 4 5
accurate
x 4
add to favorites
launch autoscroll
font size
0
reset
how to read this tab
guitar tuner
Autoscroll
slow
fast
+/-
esc
set tempo
stop
Help us to improve Ultimate-Guitar.com Take our survey!
×
Author
Difficulty
Tuning
intermediate
D# G# C# F# A# D#
-------------------------------------------------------------------------------
                             Who Me? - Buckethead
-------------------------------------------------------------------------------
Tabbed by: Frost/MarcoRossi101/Derek/Whatever you wanna call me...
Email: derekswad12@hotmail.com

Tuning: Half step down
NOTE: This is from the Monsters and Robots album... NOT The early version... that one is 
a LOT more complicated to play...

This part is repeated with a few screw ups. listen to the song and you'll see what I mean.

      Let it all ring out
e|---3-----------3---0----------------3-------3---5---0----------------------|
B|-----------1----------------------------1-----------------------0----------|
G|-------0---------------0-------0------------------------0------------------|
D|---------------------------0--------------------------------0--------------|
A|---3---------------3----------------3---------------3----------------------|
E|---------------------------------------------------------------------------|

e|-----------0---------------------------------0---3-------------------------|
B|---1---0-------1---0-------------0---1---0-----------0-----------0---------|
G|------------------------0--------------------------------0-----------------|
D|----------------------------0--------------------------------0-------------|
A|---0---------------------------------0-------------------------------------|
E|-------------------3---------------------------------3---------------------|

e|-----------0---------------------------------------------------------------|
B|---1---0-------1---0------------0-----0---1--------------------------------|
G|------------------------0------------------------2-------------------------|
D|----------------------------0----------------------------------------------|
A|---0-----------------------------------------------------------------------|
E|-------------------3------------------1------------------------------------|

Play (or screw this up if you're playing it like Buckethead) that about 3 times then this.

same as the beginning...

e|---3-----------3---0----------------3-------3---5---0----------------------|
B|-----------1----------------------------1-----------------------1----------|
G|-------0---------------0-------0------------------------0------------------|
D|---------------------------0--------------------------------0--------------|
A|---3---------------3----------------3---------------3----------------------|
E|---------------------------------------------------------------------------|

e|-----------0---------------------------------0---3-------------------------|
B|---1---0-------1---0-------------0---1---0-----------0-----------0---------|
G|------------------------0--------------------------------0-----------------|
D|----------------------------0--------------------------------0-------------|
A|---0---------------------------------0-------------------------------------|
E|-------------------3---------------------------------3---------------------|
Buckethead does some sort of fake ending... its not over yet. This part changes 
SLIGHTLY. Again... Listen to the song and you'll see what I mean.

e|---3-----------3---0----------------3-------3---5---0----------------------|
B|-----------1----------------------------1-----------------------1----------|
G|-------0---------------0-------0------------------------0------------------|
D|---------------------------0--------------------------------0--------------|
A|---3---------------3----------------3---------------3----------------------|
E|---------------------------------------------------------------------------|

e|---3-------3---3---0----------------3-------3---5---0----------------------|
B|----------------------------------------1-----------------------1----------|
G|-------0---------------0-------0------------------------0------------------|
D|---------------------------0--------------------------------0--------------|
A|---3---------------3----------------3---------------3----------------------|
E|---------------------------------------------------------------------------|

Play This slower than you normally would. (x2)
e|-----------0---------------------------------0---3-------------------------|
B|---1---0-------1---0-------------0---1---0-----------0-----------0---------|
G|------------------------0--------------------------------0-----------------|
D|----------------------------0--------------------------------0-------------|
A|---0---------------------------------0-------------------------------------|
E|-------------------3---------------------------------3---------------------|

                                                 "Who... me?" - Buckethead
e|-----------3---------------------------------------------------------------|
B|---1---0-------1---0------------0-----0---1--------------------------------|
G|------------------------0------------------------0-------------------------|
D|----------------------------0----------------------------------------------|
A|---0-----------------------------------------------------------------------|
E|-------------------3------------------1------------------------------------|
Suggest correction
comments
print report bad tab
guest
You may want to rate the tab now too:
select rating
Please do not post tabs as comments. Select "correction" instead!