Oops, an error
Loading. Please wait.

Witches On The Heath Tab

version 1
version 1

Whole song

Interactive

7,647 views 1 this week
8 commentsread comments
1 2 3 4 5
excellent!
x 5
add to favorites
launch autoscroll
font size
0
reset
how to read this tab
guitar tuner
Autoscroll
slow
fast
+/-
esc
set tempo
stop
Help us to improve Ultimate-Guitar.com Take our survey!
×
Author
-------------------------------------------------------------------------------
        Witches on the Heath - Buckethead (Album version)
-------------------------------------------------------------------------------
Tabbed by: Brad V. (black_box on http://www.ultimate-guitar.com/forum/index.php)

Standard Tuning


E|--------------------------------------------------|
B|-----------5-----------------------5~~~~~---------|
G|--------4-----4--------4--------4-----------4-----|
D|-----6-----------6--7--------6-----------------6--|
A|--4-----------------------4-----------------------|
E|--------------------------------------------------|


E|------------------------------------------------------------|
B|-----------5--------------------------0~~~-----------------*|
G|--------4-----4-----------------2----------2----------------|
D|-----7-----------7-----4-----2-----2----------2------------*|
A|--4-----------------2-----0----------------------0~~~~~-2---|
E|------------------------------------------------------------|


E|----------------------------------------------|
B|----------------------------------------------|
G|--11b13~~~~-11-9-8~~9-----------------9/11~~~-|
D|----------------------9~~~~--6h9-9/11---------|
A|----------------------------------------------|
E|----------------------------------------------|


E|----------9-----------------14b16r14~~b16-14-12-11b12r11~~~-------------|
B|--------9---9-12~-12b14~~-----------------------------------14----------|
G|--11b13--------------------------------------------------------11h13~~--|
D|------------------------------------------------------------------------|
A|------------------------------------------------------------------------|
E|------------------------------------------------------------------------|


E|-----------16-14-----------19~~~~-16h17p16\14-16~~-------------------|
B|-----------------17-16~~~-------------------------14-14~~-16h17~~----|
G|--------13-------------------------------------------------------16~~|
D|-----14--------------------------------------------------------------|
A|--16-----------------------------------------------------------------|
E|---------------------------------------------------------------------|


E|----------------------------------------------------------9----------|
B|--12b14r12-9---------------12~~~~~~---------------------9---12b14~~~-|
G|-------------11b13r11~~~---11b13~~r11-9-11-9----9-11b13--------------|
D|---------------------------------------------11----------------------|
A|---------------------------------------------------------------------|
E|---------------------------------------------------------------------|


E|-----------------------------------------------------------------------|
B|--12b14-12-9-----------------------------------------------------------|
G|-------------11b13r11-9h11--9---------11b13r11~~-11b13r11~~~9-8~-9-----|
D|------------------------------11~~~~-------------------------------9~~-|
A|-----------------------------------------------------------------------|
E|-----------------------------------------------------------------------|


E|--11-11-12/14~~~--14--16--19~\17~~-16~\14~~/16-|
B|-----------------------------------------------|
G|--8--8--9-/11~~~--11--13--16~\14~~-13~\11~~/13-|
D|-----------------------------------------------|
A|-----------------------------------------------|
E|-----------------------------------------------|
    (very soft on high E at first)


E|-12-14--16--17--19~~~-17~\16--16~/17~\16~\14--14~/16--12-12--|
B|-------------------------------------------------------------|
G|-9--11--13--14--16~~~-14~\13--13~/14~\13~\11--11~/13--9--9---|
D|-------------------------------------------------------------|
A|-------------------------------------------------------------|
E|-------------------------------------------------------------|

E|---------------------------9-------------------------------------|
B|-----------------12~~~--------12p9-------------------------------|
G|------------------------9~~--------11~/13~~-9-8-9----------------|
D|----11h13h14-11-----------------------------------9~~--------9~~-|
A|-14-----------------------------------------------------9-11-----|
E|-----------------------------------------------------------------|


E|-------------------------14--16--17--16~~~---19--19--17--|
B|---------------12~/14~~~---------------------------------|
G|--------8/9--------------11--13--14--13~~~---16--16--14--|
D|--9h11~~----9--9~~/11~~~---------------------------------|
A|---------------------------------------------------------|
E|---------------------------------------------------------|


E|-16~/17\16~~-14--12-11-11-/12-------------------|
B|------------------------------12----------------|
G|-13~/14\13~~-11--9--8--8--/9--------------9~~~--|
D|------------------------------9------9h11-------|
A|------------------------------------------------|
E|------------------------------------------------|


E|-------------------------------------------------------|
B|-12b14~~--12b14-12-9--------------------17-19-19b21~~~-|
G|---------------------11b12-11-9~~~---18----------------|
D|-------------------------------------------------------|
A|-------------------------------------------------------|
E|-------------------------------------------------------|


E|--19-------------------------------------------|
B|-----19b21-19-17-16~~~--16b17r16~~~-16b17r16~~~|
G|-----------------------------------------------|
D|-----------------------------------------------|
A|-----------------------------------------------|
E|-----------------------------------------------|

E|-------------------------------------------------------------------|
B|---------------------------------------19b20r19-17-19-19~-17-------|
G|--18p16~~-18-16-18-16-18-16-18-18~~~~------------------------18-18-|
D|-------------------------------------------------------------------|
A|-------------------------------------------------------------------|
E|-------------------------------------------------------------------|

E|--------------------------------------------------|
B|--------------------------------------------------|
G|---16----16~~-16h18~------------------------------|
D|------18-------------16h18~~-16------14/16~~14-14-|
A|--------------------------------19~~--------------|
E|--------------------------------------------------|


E|------------------------------------------|
B|--12--------------------------------------|
G|--11b13r11-9----9-9~~~--------------------|
D|-------------11--------9h11~~------9/11~~-|
A|------------------------------9-----------|
E|--------------------------------12--------|


E|--------------------------------------------------------|
B|----------19b20-19--17h19~~--12h14----------------------|
G|--16b18~~--------------------------11h13----------------|
D|-----------------------------------------11h14-13~~-11--|
A|--------------------------------------------------------|
E|--------------------------------------------------------|


E|----------------------------------------------------------|
B|------------------------------------------14~~------------|
G|--------------------------11h13p11-------------16p13\11\9-|
D|--------11h14p11~~-----------------14-11~~----------------|
A|--11h14-------------11h14---------------------------------|
E|----------------------------------------------------------|

E|--------------------------------------------------------|
B|-------------------------------------------12~~---------|
G|--8h9p8-----------------------------------------11h13~~-|
D|--------9-----------------------13--14--11--------------|
A|----------11~~--11--14--11--14--------------------------|
E|--------------------------------------------------------|


E|-----------------------------14-12-14~~-14/16~~14~--19~~~|
B|--14p12~~--12h14-----------------------------------------|
G|--13---------------11h13~~-------------------------------|
D|---------------------------------------------------------|
A|---------------------------------------------------------|
E|---------------------------------------------------------|
Suggest correction
comments
print report bad tab
8 comments total. Showing first comments.
0 reply
Nacho Cheese! 71 wrote on April 23 2009, 10:15 am

Looks good man.

Now if only I had the time to learn it and the other 1000 things I want to learn/write. :(

0 reply
toine 1,219 wrote on April 23 2009, 10:26 am

perfect tab!! thanx a lot 5 *

0 reply
otakugeek 139 wrote on April 27 2009, 02:17 am

great job man! this is almost right on.

guest
You may want to rate the tab now too:
select rating
Please do not post tabs as comments. Select "correction" instead!