Oops, an error
Loading. Please wait.

Wonka In Slaughter Zone Tab

version 2
version 2

Whole song

Interactive

1,496 views 1 this week
no commentswrite comment
1 2 3 4 5
x 4
add to favorites
launch autoscroll
font size
0
reset
how to read this tab
guitar tuner
Autoscroll
slow
fast
+/-
esc
set tempo
stop
Help us to improve Ultimate-Guitar.com Take our survey!
×
Author
Difficulty
15-17-15-17-15----14--------------------------------------10--------------|
---------------------15-12-------12-13-12-13-12--------12-----------------|
--------------------------------12-------------12----11-------------------|
------------------------------10--------------------9---------------------|
15-------------14------------0--------------------------------------------|
--------------------------------------------------------------------------|

---14-15-14-15-14----------12-14-12-----12-14-12-14-12-12-14-15-16-17-----|
--12-------------14-------------------------------------------------------|
11---------------------9-------------------------------9--11-12-13-14-----|
----------------------9---------------------------------------------------|
--------------------------------------------------------------------------|
----------------------------------------0---------------------------------|

-------------------------14-15-14-15-14-15-14-----------------------------|
------3--------3-----------------------------15-------------------------7-|
-------------------------11-12-11-12-11-12-11---------5-7-----------------|
2-5-2----2-5-2---2-5-------------------------12--2-5-9---9-7-5-4-5-4-5-4--|
--------------------------------------------------------------------------|
--------------------------------------------------------------------------|


--------------------------------------------------------------------------|
--------------------------------------------------------------------------|
12-14-12-14-12--11----------------------------4--7------------------------|
------------------12-9----9-10-9-10-9--------5----------------------------|
10-------------9---------------------10-----5-----------------------------|
--------------------------7----------------3------------------------------|


-----------------------------------------------------------------9-------9-|
---------------------------------------------------------------------------|
---11-12-11-12-11-------9-11-9---9-11-9-11-9---9--11-12-13-14--------------|
--11-------------11----9--------------------------------------------13-14--|
-9--------------------7------------------------7--9--10-11-12-----11-------|
--------------------------------0------------------------------9-----------|
Suggest correction
comments
print report bad tab
guest
You may want to rate the tab now too:
select rating
Wanna post a correction for this tab? Suggest correction