Oops, an error
Loading. Please wait.

Land Of Make Believe bass

73 views 1 this week
no commentswrite comment
1 2 3 4 5
1 last vote to show rating
add to favorites
×
Save as Personal and add changes to this tab that will be seen only by you. Learn more ›
×
You can save this tab as Personal to edit and correct it or add notes. All changes will be seen only by you. Learn more »
launch autoscroll
font size
0
reset
guitar tuner
edit
Autoscroll
slow
fast
+/-
esc
set tempo
stop
Author
Land Of Make Believe
Second UK number 1 single from Eurovision winners Bucks Fizz released in 1981.  
This song was a million seller all over Europe. Tab by bass50611
Tab as how I see it considering original bass could be a synth bass.
My kind thanks to Jack Delonge for the chords.

PLEASE NOTE – TO PLAY ALONG TO RECORD TUNE DOWN QUARTER OF A TONE

Intro: VOCALS AND DRUM START

                                       (Play This Bit x2)
G|-------------------------------------------------------|
D|-------------------------------------------------------|
A|-----------------------------7-7-7--7--7---9-9-9--9--9-|
E|-7-7-7--7--7----4-4-4--4--4----------------------------|

Verse 1:
G|-------------------------------------------------------------------|
D|-------------------------------------------------------------------|
A|--------------6-6-6--6--6---7-7-7--7--7---9-9-9--9--9--------------|
E|-7-7-7--7--7-------------------------------------------7-7-7--7--7-|

G|-------------------------------------------------------------------|
D|-------------------------------------------------------------------|
A|-6-6-6--6--6---7-7-7--7--7---9-9-9--9--9---------------6-6-6--6--6-|
E|------------------------------------------7-7-7--7--7--------------|

G|--------------------------------------------------------------------|
D|--------------------------------------------------------------------|
A|-7-7-7--7--7---9-9-9--9--9---7-7-7--7--7---9-9-9--9--9--------------|
E|--------------------------------------------------------9-9-9--9--9-|

G|---------------------------------------------------------------------|
D|---------------------------------------------------------------------|
A|--------------11-11-11--11--11---11-11-11--11--11---11-11-11--11--11-|
E|-9-9-9--9--9---------------------------------------------------------|

G|------------------|
D|------------------|
A|-11-11-11--11--11-|
E|------------------|

Chorus:
G|------------------------------------------------------------------|
D|-----------------------------------------6-6-6--6--6--------------|
A|----------------------------6-6-6--6--6---------------4-4-4--4--4-|
E|-9-9-9--9--9---6-6-6--6--6----------------------------------------|

G|-----------------------------------------------------------------|
D|---------------------------6-6-6--6--6---------------------------|
A|--------------6-6-6--6--6---------------4-4-4--4--4--------------|
E|-6-6-6--6--6-----------------------------------------6-6-6--6--6-|

G|------------------------------------------------------|
D|------------------------------------------------------|
A|-9-9-9--9--9---9-9-9--9--9----------------------------|
E|----------------------------9-9-9--9--9---9-9-9--9--9-|

Interlude:                              (Play This Bit x2)
G|-------------------------------------------------------|
D|-------------------------------------------------------|
A|-----------------------------7-7-7--7--7---9-9-9--9--9-|
E|-7-7-7--7--7----4-4-4--4--4----------------------------|

Verse 2:
G|-------------------------------------------------------------------|
D|-------------------------------------------------------------------|
A|--------------6-6-6--6--6---7-7-7--7--7---9-9-9--9--9--------------|
E|-7-7-7--7--7-------------------------------------------7-7-7--7--7-|

G|-------------------------------------------------------------------|
D|-------------------------------------------------------------------|
A|-6-6-6--6--6---7-7-7--7--7---9-9-9--9--9---------------6-6-6--6--6-|
E|------------------------------------------7-7-7--7--7--------------|

G|--------------------------------------------------------------------|
D|--------------------------------------------------------------------|
A|-7-7-7--7--7---9-9-9--9--9---7-7-7--7--7---9-9-9--9--9--------------|
E|--------------------------------------------------------9-9-9--9--9-|

G|---------------------------------------------------------------------|
D|---------------------------------------------------------------------|
A|--------------11-11-11--11--11---11-11-11--11--11---11-11-11--11--11-|
E|-9-9-9--9--9---------------------------------------------------------|

G|------------------|
D|------------------|
A|-11-11-11--11--11-|
E|------------------|

Chorus:
G|------------------------------------------------------------------|
D|-----------------------------------------6-6-6--6--6--------------|
A|----------------------------6-6-6--6--6---------------4-4-4--4--4-|
E|-9-9-9--9--9---6-6-6--6--6----------------------------------------|

G|-----------------------------------------------------------------|
D|---------------------------6-6-6--6--6---------------------------|
A|--------------6-6-6--6--6---------------4-4-4--4--4--------------|
E|-6-6-6--6--6-----------------------------------------6-6-6--6--6-|

G|------------------------------------------------------|
D|------------------------------------------------------|
A|-9-9-9--9--9---9-9-9--9--9----------------------------|
E|----------------------------9-9-9--9--9---9-9-9--9--9-|

Bridge:
G|---------------------------------------------------------------------|
D|-4-4-4--4--4---6-6-6--6--6---4-4-4--4--4---6-6-6--6--6---4-4-4--4--4-|
A|---------------------------------------------------------------------|
E|---------------------------------------------------------------------|

G|-----------------------------------------------------|
D|-6-6-6--6--6---6-6-6--6--6---------------------------|
A|----------------------------4-4-4--4--4--------------|
E|-----------------------------------------7-7-7--7--7-|

Chorus 2: (Key Change)
G|----------------------------------------------------|
D|----------------------------------------------------|
A|-6-6-6--6--6---------------8-8-8--8--8--------------|
E|--------------8-8-8--8--8---------------6-6-6--6--6-|

G|----------------------------------------------------|
D|----------------------------------------------------|
A|-6-6-6--6--6---------------8-8-8--8--8--------------|
E|--------------8-8-8--8--8---------------6-6-6--6--6-|

G|-----------------------------------------------------|
D|---------------------------6-6-6--6--6---6-6-6--6--6-|
A|-6-6-6--6--6-----------------------------------------|
E|--------------8-8-8--8--8----------------------------|

Outro:    (Repeat Outro To Fade/End)
G|----------------------------------------------------|
D|----------------------------------------------------|
A|-6-6-6--6--6---------------8-8-8--8--8--------------|
E|--------------8-8-8--8--8---------------6-6-6--6--6-|

G|----------------------------------------------------|
D|----------------------------------------------------|
A|-6-6-6--6--6---------------8-8-8--8--8--------------|
E|--------------8-8-8--8--8---------------6-6-6--6--6-|

G|-----------------------------------------------------|
D|---------------------------6-6-6--6--6---6-6-6--6--6-|
A|-6-6-6--6--6-----------------------------------------|
E|--------------8-8-8--8--8----------------------------|



Stars in your eyes,
Little one,
Where do you go to dream,
To a place,
We all know,
The land of make believe

Shadows,
Tapping at your window,
Fhostly,
Voices whisper will you come and play?

Not for all the tea in China,
Or the corn in Carolina,
Never,
Never ever
They're running after you babe

Run for the sun,
Little one,
You're an outlaw once again,
Time to change,
Superman,
Will be with us while he can,
In the land of make believe

Something,
Nasty in your garden's,
Waiting patiently,
'Till it can have your heart,

Try to go,
But it won't let you,
Don't you know it's out to get you,
Running,
Keep on running
They're running after you babe

Run for the sun,
Little one,
You're an outlaw once again,
Time to change,
Superman,
Will be with us while he can,
In the land of make believe

Your world is turning,
From night to day,
Your dream is burning far, far away

Into the blue,
You and I,
To the circus in the sky,
Captain Kids,
On the sand,
With the treasure close at hand,
In the land of make believe

In the land of make believe

Run for the sun,
Little one,
You're an outlaw once again,
Time to change,
Superman,
Will be with us while he can,
In the land of make believe

Run for the sun,
Little one,
You're an outlaw once again,
Time to change,
Superman,
Will be with us while he can,
In the land of make believe

(Little girl)
I've got a friend who comes to tea,
And no-one else can see but me,
He came today,
But had to go,
To visit you?
You never know...

            
            
Suggest correction
Creating personal tab
Creating personal tab
You can edit any tab online and save it as your Personal.

You can edit, replace or remove any tab part or add personal notes – all changes will be seen only by you.

Personal tabs can be accessed anytime from any device, even offline.
Learn more »
Give kudos to tab author, rate the tab!
1 2 3 4 5
comments
print report bad tab
guest
You may want to rate the tab now too:
select rating
Wanna post a correction for this tab? Suggest correction