Oops, an error
Loading. Please wait.

Messin With The Kid Tab

18,691 views 66 this week
1 commentread comment
1 2 3 4 5
x 5
add to favorites
launch autoscroll
font size
0
reset
how to read this tab
guitar tuner
×
Best way to learn
"Messin With The Kid"
Autoscroll
slow
fast
+/-
esc
set tempo
stop
Author
I wasn't sure whether this was jr wells or buddy guy because buddy plays it
but jr sings it.  So any way hope this helps you.
                                        Swishy

This is the main riff and chords to this song it's pretty simple.

e|--7--5-------------------|
B|--------7--5-------------|
G|--------------7-6-7---4--|
D|--------------------7----|
A|-------------------------|
E|-------------------------|

e|-------------------------------------|
B|-------7-----------------9------7----|
G|-7-----7h9---7-----7-----9h11---7h9--|then play the main riff
D|-7h9---7h9---7h9---7h9---9h11---7h9--|
A|-7h9---7-----7h9---7h9---9------7----|
E|-7-----------7-----7-----------------|

after each chord you strum in some imposible to tab pattern
Just listen to the song to figure it out.

You can find this song on Muddy Waters "Messin' with the blues" DVD
Suggest correction
comments
print report bad tab
1 comment total.
+1 reply
Baldasar 50 Mar 25, 2010 08:35 AM

If you play it in B, the corret intro is
e|--7--5-------------------|
B|--------7--5-------------|
G|--------------7-6-4---4--|
D|--------------------7----|
A|-------------------------|
E|-------------------------|
or maybe you just did a typing error

guest
You may want to rate the tab now too:
select rating
Wanna post a correction for this tab? Suggest correction