Oops, an error
Loading. Please wait.

Wear You Out tab

100 views 3 this week
no commentswrite comment
1 2 3 4 5
1 last vote to show rating
add to favorites
×
Save as Personal and add changes to this tab that will be seen only by you. Learn more ›
×
You can save this tab as Personal to edit and correct it or add notes. All changes will be seen only by you. Learn more »
launch autoscroll
font size
0
reset
how to read this tab
guitar tuner
edit
Autoscroll
slow
fast
+/-
esc
set tempo
stop
About this tab version
Full tab including both guitar parts. Please Rate or comment. Was this info helpful? Yes No
Buddy Guy (featuring Bily Gibbons) - Wear You Out
Tuning - Drop C
tabbed by jjhand



[Intro]
D|---------------|
A|---------------|
F|---------------| pick-up notes
C|----3----------|
G|-x-------------|
C|---------------|

   repeating part:
D|------------------------------|------------------------------|
A|------------------------------|------------------------------|
F|------------------------------|------------------------------|
C|------------------------------|----------------------3-------|  repeat
G|----------------------3---5---|--------------------------5---|  until 0:14
C|-0----0-3b---0-0----0---------|-0----0-3b---0-0----0---------|
 

   Lead Part (0:07)
D|-------------------------------|--------------------|-----------------------------|
A|----12----12----12----10-------|--------------------|-----------------------------|
F|----12----12----12----10-------|--------------------|-----------------------------|
C|-12----------------12----12p10-|--------------------|-12p10-----------------------|
G|-------------------------------|--------------------|-------10p8-10--8~-----------|
C|-------------------------------|--------------------|-----------------------------|



[Verse]

D|------------------------------|------------------------------|
A|------------------------------|------------------------------|
F|------------------------------|------------------------------|  play 3x
C|------------------------------|----------------------3-------| 
G|----------------------3---5---|--------------------------5---|
C|-0----0-3----0-0----0---------|-0----0-3----0-0----0---------|
PM *    * *    * *    *           *    * *    * *    *

D|------------------------------|------------------------------|
A|------------------------------|------------------------------|
F|------------------------------|------------------------------|
C|------------------------------|-------------0-0h3p0---0------|  
G|----------------------3---5---|---------------------3--------|  
C|-0----0-3b---0-0----0---------|--------3---------------------|
PM *    * *    * *    *



[Chorus]

   Rhythm part
D|-------------------------|-------------------------|
A|-------------------------|-------------------------|
F|-4-----4-----4-----4-----|-4-----4-----4-----4-----|
C|-4-----4-----4-----4-----|-4-----4-----4-----4-----|
G|-2-----2-----2-----2-----|-2-----2-----2-----2-----|
C|-------------------------|-------------------------|

D|------------------------------|---------------------------|
A|------------------------------|---------------------------|
F|------------------------------|---------------------------|
C|------------------------------|---------------------------|
G|----------------------3---5---|---------------------------|
C|-0----0-3b---0-0----0---------|-0----0-3b---0-0-----0-----|

D|-------------------------|-------------------------|
A|-------------------------|-------------------------|
F|-4-----4-----4-----4-----|-4-----4-----5-----5-----|
C|-4-----4-----4-----4-----|-4-----4-----5-----5-----|
G|-2-----2-----2-----2-----|-2-----2-----3-----3-----|
C|-------------------------|-------------------------|


   Lead part
D|-----17--15--13----15----|--------------------|-15b17-15b16r-13-----13--13---|----------------|
A|----------------------15~|--------------------|-----------------15-----------|-15~------------|
F|-------------------------|--------------------|------------------------------|----------------|
C|-------------------------|--------------------|------------------------------|----------------|
G|-------------------------|--------------------|------------------------------|----------------|
C|-------------------------|--------------------|------------------------------|----------------|

D|--------------------10---------|--------------------|------------------------|----------------|
A|------------------10--10-13-10-|--------------------|------------------------|----------------|
F|------------12b14--------------|-12p10--------------|------12--12--12--------|----------------|
C|-------------------------------|------12------------|--------------------12--|-10~------------|
G|-------------------------------|--------------------|------------------------|----------------|
C|-------------------------------|--------------------|------------------------|----------------|



[Verse 2]

D|------------------------------|------------------------------|
A|------------------------------|------------------------------|
F|------------------------------|------------------------------|  play 3x
C|------------------------------|----------------------3-------| 
G|----------------------3---5---|--------------------------5---|
C|-0----0-3----0-0----0---------|-0----0-3----0-0----0---------|
PM *    * *    * *    *           *    * *    * *    *

D|------------------------------|------------------------------|
A|------------------------------|------------------------------|
F|------------------------------|------------------------------|
C|------------------------------|------------------------------|  
G|----------------------3---5---|------------------------------|  
C|-0----0-3b---0-0----0---------|-0------5------3-----5--------|
PM *    * *    * *    *

    Lead - halfway through Verse:
D|--13___b-------|
A|---------------|
F|--13___b-------|
C|---------------|
G|---------------|
C|---------------|


[Chorus 2]

   Rhythm part
D|-------------------------|-------------------------|
A|-------------------------|-------------------------|
F|-4-----4-----4-----4-----|-4-----4-----4-----4-----|
C|-4-----4-----4-----4-----|-4-----4-----4-----4-----|
G|-2-----2-----2-----2-----|-2-----2-----2-----2-----|
C|-------------------------|-------------------------|

D|------------------------------|---------------------------|
A|------------------------------|---------------------------|
F|------------------------------|---------------------------|
C|------------------------------|---------------------------|
G|----------------------3---5---|---------------------------|
C|-0----0-3b---0-0----0---------|-0----0-3b---0-0-----0-----|

D|-------------------------|-------------------------|
A|-------------------------|-------------------------|
F|-4-----4-----4-----4-----|-5-----5-----5-----5-----|
C|-4-----4-----4-----4-----|-5-----5-----5-----5-----|
G|-2-----2-----2-----2-----|-3-----3-----3-----3-----|
C|-------------------------|-------------------------|

D|------------------------------|---------------------------|
A|------------------------------|---------------------------|
F|------------------------------|---------------------------|
C|------------------------------|---------------------------|
G|----------------------3---5---|---------------------------|
C|-0----0-3b---0-0----0---------|-0----0-3b---0-0-----0-----|


   Lead part
D|----15b17r15b17r15b17-13h15--|-13-------------------|-----17b19--17--15----------|
A|-----------------------------|----15-15~------------|--------------------18--15--|
F|-----------------------------|----------------------|----------------------------|
C|-----------------------------|----------------------|----------------------------|
G|-----------------------------|----------------------|----------------------------|
C|-----------------------------|----------------------|----------------------------|

D|------------------------|--------------------|--------------------|
A|-15~--------------------|--------------------|--------------------|
F|------------------------|--------------------|--------------------|
C|------------------------|-----rest-----------|-----rest-----------|
G|------------------------|--------------------|--------------------|
C|------------------------|--------------------|--------------------|



[Solo]
   Rhythm plays repeated riff part in Intro

D|-10SH~----------------|-10---------------------|----------10----------------|
A|----------------------|----13p10---------------|-------10----13---10--------|
F|----------------------|----------12gb----12p10-|-12b14--------------12-10---|
C|----------------------|------------------------|----------------------------|
G|----------------------|------------------------|----------------------------|
C|----------------------|------------------------|----------------------------|

D|------------------------|-------------------------|----------------------|
A|----10------------------|-------13--13--13--------|----------------------|
F|-12----10---12----------|-12/14---14--14----12p10-|-12p10--12------------|
C|---------------12-------|-------------------------|--------12--10~-------|
G|------------------------|-------------------------|----------------------|
C|------------------------|-------------------------|----------------------|

D|--------------------|--------------------|------------------|-------------------|
A|--------------------|--------------------|------------------|-------------------|
F|-----5--7--7--5--7--|-5--7--5------------|------------------|-------------------|
C|--------------------|----------7--5--7\--|----------3--5p3--|-5b6--5--3~~~------|
G|--------------------|--------------------|----3--5----------|-------------------|
C|--------------------|--------------------|------------------|-------------------|



[Solo Part 2]
   Rhythm Plays Chorus

D|-15b17r---13--------------------|-13TP-15/17-13TP-15p13----|------------------------|
A|-------------15----13-15TP-13TP-|-----------------------15-|-15---13-13\10----------|
F|--------------------------------|--------------------------|----------------12--10--|
C|--------------------------------|--------------------------|------------------------|
G|--------------------------------|--------------------------|------------------------|
C|--------------------------------|--------------------------|------------------------|

D|-13PH----15b17---------|-pb17--pb17r15-pb17r15-13--15--|-15b17r-13------------------|
A|-----------------------|---------------------------15--|-----------15~---15~---15---|
F|-----------------------|-------------------------------|----------------------------|
C|-----------------------|-------------------------------|----------------------------|
G|-----------------------|-------------------------------|----------------------------|
C|-----------------------|-------------------------------|----------------------------|

D|-13---15-15b18---13---13---|-----17---17---17---17---17--|-17---17---17---17---17---17--|
A|---------------------------|-----------------------------|------------------------------|
F|---------------------------|-----17---17---17---17---17--|-17---17---17---17---17---17--|
C|---------------------------|-----------------------------|------------------------------|
G|---------------------------|-----------------------------|------------------------------|
C|---------------------------|-----------------------------|------------------------------|
                                                             ** press trem bar, gradually lower pitch 


[Verse 3]

   (1:41)
D|------------------------------|------------------------------|
A|------------------------------|------------------------------|
F|------------------------------|------------------------------|
C|------------------------------|----------------------3-------| 
G|----------------------3---5---|--------------------------5---|
C|-0----0-3----0-0----0---------|-0----0-3----0-0----0---------|
PM *    * *    * *    *           *    * *    * *    *

D|------------------------------|------------------------------|
A|------------------------------|------------------------------|
F|------------------------------|-------(5)----(5)-------------|
C|------------------------------|--------5h7----5p3------------| 
G|----------------------3---5---|---------------------5~-------|
C|-0----0-3----0-0----0---------|-0----0-----------------------|
PM *    * *    * *    *           *    * 

D|------------------------------|------------------------------|
A|------------------------------|------------------------------|
F|------------------------------|------------------------------|
C|------------------------------|----------------------3-------| 
G|----------------------3---5---|--------------------------5---|
C|-0----0-3----0-0----0---------|-0----0-3----0-0----0---------|
PM *    * *    * *    *           *    * *    * *    *


D|--------------------------|----------------------|
A|--------------------------|----------------------|
F|--------------------------|----------------------|
C|-0------/3p0--------/3p0--|-----5b7---5p3--------|  
G|--------------------------|-----------------5----|  
C|------0-----------0-------|----------------------|




[Final Chorus]

   Rhythm part - repeats throughout Lead Solo
D|-------------------------|-------------------------|
A|-------------------------|-------------------------|
F|-4-----4-----4-----4-----|-4-----4-----4-----4-----|
C|-4-----4-----4-----4-----|-4-----4-----4-----4-----|
G|-2-----2-----2-----2-----|-2-----2-----2-----2-----|
C|-------------------------|-------------------------|

D|------------------------------|---------------------------|
A|------------------------------|---------------------------|
F|------------------------------|---------------------------|
C|------------------------------|---------------------------|
G|----------------------3---5---|---------------------------|
C|-0----0-3b---0-0----0---------|-0----0-3b---0-0-----0-----|

D|-------------------------|-------------------------|
A|-------------------------|-------------------------|
F|-4-----4-----4-----4-----|-5-----5-----5-----5-----|
C|-4-----4-----4-----4-----|-5-----5-----5-----5-----|
G|-2-----2-----2-----2-----|-3-----3-----3-----3-----|
C|-------------------------|-------------------------|

D|------------------------------|---------------------------|
A|------------------------------|---------------------------|
F|------------------------------|---------------------------|
C|------------------------------|---------------------------|
G|----------------------3---5---|---------------------------|
C|-0----0-3b---0-0----0---------|-0----0-3b---0-0-----0-----|




   Chorus/Outro Solo part:

D|--------15b17-15-13h15-15b17-|-13-------------------|-----15--15--13---------|---------------------|
A|-----------------------------|----15-15~----13------|--------------------15--|-15~-----------------|
F|-----------------------------|----------------------|------------------------|---------------------|
C|-----------------------------|----------------------|------------------------|---------------------|
G|-----------------------------|----------------------|------------------------|---------------------|
C|-----------------------------|----------------------|------------------------|---------------------|

D|--------------------|-----------------10-|-10-------10----10--|-12b13------------------|
A|--------------------|--------------12----|------12-----12-----|------------------------|
F|--------------------|--------------------|--------------------|------------------------|
C|--------rest--------|--------------------|--------------------|------------------------|
G|--------------------|--------------------|--------------------|------------------------|
C|--------------------|--------------------|--------------------|------------------------|

D|-/10TP--------------|-/10TP--------------|-/10TP--------------|--------------------|
A|-/10TP--------------|-/10TP--------------|-/10TP--------------|-13b15~~~-----------|
F|--------------------|--------------------|--------------------|--------------------|
C|--------------------|--------------------|--------------------|--------------------|
G|--------------------|--------------------|--------------------|--------------------|
C|--------------------|--------------------|--------------------|--------------------|

  (2:16)
D|--------------------|----13-15---15b16r-13-|-------------13b14--|-----13----10-----------|
A|--------------------|-15-------------------|-15-----------------|--------------13-10-----|
F|--------------------|----------------------|--------------------|--------------------12b-|
C|--------------------|----------------------|--------------------|------------------------|
G|--------------------|----------------------|--------------------|------------------------|
C|--------------------|----------------------|--------------------|------------------------|

D|---------------------|----------------------|-------------------------|-------------------------|
A|---------10----------|----10----------------|-------------------------|-------------------------|
F|-12---12----10---12--|-12----10---12p10-----|-10--12--10--12--10--12--|-10--12------10--12------|
C|---------------------|-----------------12---|-------------------------|---------12----------12--|
G|---------------------|----------------------|-------------------------|-------------------------|
C|---------------------|----------------------|-------------------------|-------------------------|

D|---------------------|----------------------|-------------------------|-------------------------|
A|---------------------|----------------------|-------------------------|-------------------------|
F|-10-10---------------|---------------10-12--|----------10b----12p10---|-12b13--12---10---12p10--|
C|-------12--12~-------|------12---12---------|-----9-12----------------|-------------------------|
G|---------------------|-10-------------------|-------------------------|-------------------------|
C|---------------------|----------------------|-------------------------|-------------------------|

  (2:37)
D|---------------------|------------------------|-----------------------|------------------------|
A|---------------------|------10---12b13---12---|-10~-------12b13---12--|-10~-------12b13---12---|
F|--------10p0---------|------10---12b14---12---|-10~-------12b14---12--|-10~-------12b14---12---|
C|-12----------10--10--|-12~--------------------|-----------------------|------12----------------|
G|---------------------|------------------------|-----------------------|------------------------|
C|---------------------|------------------------|-----------------------|------------------------|

D|------------13-------|-10--13-------10--------------|---------------------|--------------------|
A|-10~-----------13b15-|--------13b15---13-10---------|-12---10-------------|--------------------|
F|-10~-----------------|---------------------13-12-10-|-12---10---12--12~---|-10---12--10-12-10--|
C|---------------------|------------------------------|---------------------|--------------------|
G|---------------------|------------------------------|---------------------|--------------------|
C|---------------------|------------------------------|---------------------|--------------------|

D|-------------------------|-------------13----------|-------------------------|-------------------------|
A|-10--12--10--12--10--12--|-10--12--10--12--10--12--|-10--12--10--12--10--12--|-10--12--10--12--10--12--|
F|-10--12--10--12--10--12--|-10--12--10--12--10--12--|-10--12--10--12--10--12--|-10--12--10--12--10--12--|
C|-------------------------|-------------------------|-------------------------|-------------------------|
G|-------------------------|-------------------------|-------------------------|-------------------------|
C|-------------------------|-------------------------|-------------------------|-------------------------|



D|-------------------------|-------------13----------|-------------------------|-------------------------|
A|-10--12--10--12--10--12--|-10--12--10--12--10--12--|-10--12--10--12--10--12--|-10--12--10--12--10--12--|
F|-10--12--10--12--10--12--|-10--12--10--12--10--12--|-10--12--10--12--10--12--|-10--12--10--12--10--12--|
C|-------------------------|-------------------------|-------------------------|-------------------------|
G|-------------------------|-------------------------|-------------------------|-------------------------|
C|-------------------------|-------------------------|-------------------------|-------------------------|

   (3:06)
D|-------------------------|-------------------------|-------------------------|-------------------------|
A|-------------------------|-------------------------|-------------------------|------12b13---12p10------|
F|-12b13r12--10-12p10------|--------------------10---|-10----------------------|------12b14---12p10------|
C|-------------------10h11-|-12-------x--10-12TP--12-|----12TP-10-12TP---------|-12------------------12--|
G|-------------------------|-------------------------|-------------------------|-------------------------|
C|-------------------------|-------------------------|-------------------------|-------------------------|

D|-------------------------|-----------------------10-------|-----------------------------|
A|-12b13---12---10---------|-10---12p10---13-12p10-10-12p10-|-----------------------------|
F|-12b14---12---10---------|-10---12p10------12p10----12p10-|-12-------13TP-12TP-10-12-10-|
C|-------------------12----|--------------------------------|----12-----------------------|
G|-------------------------|--------------------------------|-----------------------------|
C|-------------------------|--------------------------------|-----------------------------|

   start fade out
D|-------------------------|-------------------------|-------------------------|-------------------------|
A|-------------------------|-------------------------|-10----10----------------|-------------------------|
F|-13-----10---------------|-------------------------|-10----10----------------|-------------------------|
C|------12--12-------------|-------------10---12-----|----------12p10-12~------|-------------------------|
G|-------------------------|-8---10---10-------------|-------------------------|-------------------------|
C|-------------------------|-------------------------|-------------------------|-------------------------|


************************************

| x   Dead note
| (n) Ghost note
| h   Hammer-on
| p   Pull-off
| r   Release
| b   Bend
| gb  Gradual Bend
| pb  Pre-bend
| /   Slide up
| \   Slide down
| ~   Vibrato
| SH  Semi Harmonic - Pinch harmonic that is a mix of original note and higher pitch

************************************
Suggest correction
Creating personal tab
Creating personal tab
You can edit any tab online and save it as your Personal.

You can edit, replace or remove any tab part or add personal notes – all changes will be seen only by you.

Personal tabs can be accessed anytime from any device, even offline.
Learn more »
Give kudos to tab author, rate the tab!
1 2 3 4 5
comments
print report bad tab
guest
You may want to rate the tab now too:
select rating
Wanna post a correction for this tab? Suggest correction