Oops, an error
Loading. Please wait.

Bo Diddley Tab

19,379 views 9 this week
1 commentread comment
1 2 3 4 5
1 last vote to show rating
add to favorites
launch autoscroll
font size
0
reset
how to read this tab
guitar tuner
Autoscroll
slow
fast
+/-
esc
set tempo
stop
Help us to improve Ultimate-Guitar.com Take our survey!
×
Author
Difficulty
Tabbed By: Belavista Man
On: 20/03/08
E-mail: anthonybentley@hotmail.co.uk

Intro:
   1 + 2 + a 3 + 4 +    1 + 2 + a 3 + 4 +
e|-x-x-x-x-x-x-x-x-5\-|-x-x-x-x-x-x-x-x-9\--|
B|-x-x-x-x-x-x-x-x-5\-|-x-x-x-x-x-x-x-x-10\-|
G|-x-x-x-x-x-x-x-x----|-x-x-x-x-x-x-x-x-----|
D|-x-x-x-x-x-x-x-x----|-x-x-x-x-x-x-x-x-----|
A|-x-x-x-x-x-x-x-x----|-x-x-x-x-x-x-x-x-----|
E|-x-x-x-x-x-x-x-x----|-x-x-x-x-x-x-x-x-----|

   1 + 2 + a 3 + 4 +     1 + 2 + a 3 + 4 +
e|-x-x-x-x-x-x-x-x-17\-|-x-x-x-x-x-x-x-x-12\-|
B|-x-x-x-x-x-x-x-x-17\-|-x-x-x-x-x-x-x-x-14\-|
G|-x-x-x-x-x-x-x-x-----|-x-x-x-x-x-x-x-x-----|
D|-x-x-x-x-x-x-x-x-----|-x-x-x-x-x-x-x-x-----|
A|-x-x-x-x-x-x-x-x-----|-x-x-x-x-x-x-x-x-----|
E|-x-x-x-x-x-x-x-x-----|-x-x-x-x-x-x-x-x-----|


Bo Diddley buys baby diamond ring

e|-------12-------------------|
B|-14-14-14-14-12-12-12-12/14-|
G|-14-14----14-12-12-12-12/14-|
D|----------------------------|
A|----------------------------|
E|----------------------------|

if that diamond ring don't shine

e|-------12-------------------|
B|-14-14-14-14-12-12-12-12/14-|
G|-14-14----14-12-12-12-12/14-|
D|----------------------------|
A|----------------------------|
E|----------------------------|

he's gonna take it to a private eye

e|-------12-------------------|
B|-14-14-14-14-12-12-12-12/14-|
G|-14-14----14-12-12-12-12/14-|
D|----------------------------|
A|----------------------------|
E|----------------------------|

if that private eye I can't see

e|-------12-------------------|
B|-14-14-14-14-12-12-12-12/14-|
G|-14-14----14-12-12-12-12/14-|
D|----------------------------|
A|----------------------------|
E|----------------------------|

he better not take a ring from me

e|-------12-------------------|
B|-14-14-14-14-12-12-12-12/14-|
G|-14-14----14-12-12-12-12/14-|
D|----------------------------|
A|----------------------------|
E|----------------------------|

   1 + 2 + a 3 + 4 +
e|-x-x-x-x-x-x-x-x-x-|-10-10-10-10-10-10/12-12-12-10-10-10-|
B|-x-x-x-x-x-x-x-x-x-|-10-10-10-10-10-10/12-12-12-10-10-10-|
G|-x-x-x-x-x-x-x-x-x-|-------------------------------------|
D|-x-x-x-x-x-x-x-x-x-|-------------------------------------|
A|-x-x-x-x-x-x-x-x-x-|-------------------------------------|
E|-x-x-x-x-x-x-x-x-x-|-------------------------------------|

   1 +  2 +  3 +  4 
e|-x-9--x-9--x-9--9--|-10-10-10-10-10-10/12-12-12-10-10-10-|
B|-x-10-x-10-x-10-10-|-10-10-10-10-10-10/12-12-12-10-10-10-|
G|-x----x----x-------|-------------------------------------|
D|-x----x----x-------|-------------------------------------|
A|-x----x----x-------|-------------------------------------|
E|-x----x----x-------|-------------------------------------|

   1 +  2 +  3 +  4
e|-x-9--x-9--x-9--9--|
B|-x-10-x-10-x-10-10-|
G|-x----x----x-------|
D|-x----x----x-------|
A|-x----x----x-------|
E|-x----x----x-------|

   1 + 2 + a 3 + 4 +    1 + 2 + a 3 + 4 +
e|-x-x-x-x-x-x-x-x-5\-|-x-x-x-x-x-x-x-x-9\--|
B|-x-x-x-x-x-x-x-x-5\-|-x-x-x-x-x-x-x-x-10\-|
G|-x-x-x-x-x-x-x-x----|-x-x-x-x-x-x-x-x-----|
D|-x-x-x-x-x-x-x-x----|-x-x-x-x-x-x-x-x-----|
A|-x-x-x-x-x-x-x-x----|-x-x-x-x-x-x-x-x-----|
E|-x-x-x-x-x-x-x-x----|-x-x-x-x-x-x-x-x-----|

   1 + 2 + a 3 + 4 +     1 + 2 + a 3 + 4 +
e|-x-x-x-x-x-x-x-x-17\-|-x-x-x-x-x-x-x-x-12\-|
B|-x-x-x-x-x-x-x-x-17\-|-x-x-x-x-x-x-x-x-14\-|
G|-x-x-x-x-x-x-x-x-----|-x-x-x-x-x-x-x-x-----|
D|-x-x-x-x-x-x-x-x-----|-x-x-x-x-x-x-x-x-----|
A|-x-x-x-x-x-x-x-x-----|-x-x-x-x-x-x-x-x-----|
E|-x-x-x-x-x-x-x-x-----|-x-x-x-x-x-x-x-x-----|

Won't you come to my house a black cat bone
to take my baby all away from home
Brother Bo just where you been?
up your house and gone again

Bo Diddley called a bear cat
making pretty baby on sunday hat
Bo Diddley caught a nanny goat
to make his pretty baby a Sunday coat

Bo Diddley
Bo Diddley have you heard
my pretty baby she was a bird

Everything's there, I think. Any problems or questions, just leave me a message! =]
Suggest correction
Give kudos to tab author, rate the tab!
1 2 3 4 5
comments
print report bad tab
1 comment total.
0 reply
marshmellow666 1,489 May 01, 2008 05:16 PM

AHH BO DIDDLAY!!! YEAAAAHHH BO DIDDLEAH!!!!

guest
You may want to rate the tab now too:
select rating
Wanna post a correction for this tab? Suggest correction