Oops, an error
Loading. Please wait.

Everyday Bass Tab

version 1
version 1

Whole song

Interactive

64 views 3 this week
no commentswrite comment
1 2 3 4 5
3 more votes to show rating
add to favorites
launch autoscroll
font size
0
reset
guitar tuner
Autoscroll
slow
fast
+/-
esc
set tempo
stop
Help us to improve Ultimate-Guitar.com Take our survey!
×
Author
Difficulty
novice
Tabbed by: 6METAL6BASSIST6
E-mail: petergriffinav@gmail.com

Tuning: EADG

G|----------------------------------------------------------------|
D|----------------8-------------------------------8---------------|
A|6-------------------------------6-------------------------------|
E|----------------------------------------------------------------|

0:05

G|----------------------------------------------------------------|
D|------------------------------------------------8---------------| x3
A|6-------------------------------8-------------------------------|
E|----------------8-----------------------------------------------|

G|----------------------------------------------------------------|
D|----------------6-------------------------------8---------------|
A|6-------------------------------6-------------------------------|
E|----------------------------------------------------------------|

0:19

G|----------------------------------------------------------------|
D|----------------8---------------6---------------8---------------| x2
A|6---------------------------------------------------------------|
E|----------------------------------------------------------------|

G|----------------------------------------------------------------|
D|----------------8---------------8-------------------------------|
A|6-----------------------------------------------8---------------|
E|----------------------------------------------------------------|

G|----------------------------------------------------------------|
D|----------------6-------------------------------8---------------|
A|6-------------------------------6-------------------------------|
E|----------------------------------------------------------------|

0:33

G|----------------------------------------------------------------|
D|6-------------------------------6-------------------------------|
A|----------------6-------------------------------6---------------|
E|----------------------------------------------------------------|

G|----------------------------------------------------------------|
D|----------------6-------------------------------6---------------|
A|4-------------------------------4-------------------------------|
E|----------------------------------------------------------------|

G|----------------------------------------------------------------|
D|4-------------------------------4-------------------------------|
A|----------------4-------------------------------4---------------|
E|----------------------------------------------------------------|

G|----------------------------------------------------------------|
D|--------------------------------8---------------8---------------|
A|----------------------------------------------------------------|
E|7---------------7-----------------------------------------------|

0:47

G|----------------------------------------------------------------|.
D|----------------8---------------6---------------8---------------|.
A|6---------------------------------------------------------------|.
E|----------------------------------------------------------------|.
                                                                   .
G|----------------------------------------------------------------|.
D|----------------8---------------6---------------8---------------|.
A|6---------------------------------------------------------------|.
E|----------------------------------------------------------------|.
                                                                   . x3
G|----------------------------------------------------------------|.
D|----------------8---------------8-------------------------------|.
A|6-----------------------------------------------8---------------|.
E|----------------------------------------------------------------|.
                                                                   .
G|----------------------------------------------------------------|.
D|----------------6-------------------------------8---------------|.
A|6-------------------------------6-------------------------------|.
E|----------------------------------------------------------------|.

1:29

G|----------------------------------------------------------------|
D|6-------------------------------6-------------------------------|
A|----------------6-------------------------------6---------------|
E|----------------------------------------------------------------|

G|----------------------------------------------------------------|
D|----------------6-------------------------------6---------------|
A|4-------------------------------4-------------------------------|
E|----------------------------------------------------------------|

G|----------------------------------------------------------------|
D|4-------------------------------4-------------------------------|
A|----------------4-------------------------------4---------------|
E|----------------------------------------------------------------|

G|----------------------------------------------------------------|
D|--------------------------------8---------------8---------------|
A|----------------------------------------------------------------|
E|7---------------7-----------------------------------------------|

1:43

G|----------------------------------------------------------------|
D|----------------8---------------6---------------8---------------| x2
A|6---------------------------------------------------------------|
E|----------------------------------------------------------------|

G|----------------------------------------------------------------|
D|----------------8---------------8-------------------------------|
A|6-----------------------------------------------8---------------|
E|----------------------------------------------------------------|

G|----------------------------------------------------------------|
D|----------------6-------------------------------8---------------|
A|6-------------------------------6-------------------------------|
E|----------------------------------------------------------------|

1:57

G|----------------------------------------------------------------|
D|----------------8---------------6-------------------------------|
A|6-----------------------------------------------8---------------|
E|----------------------------------------------------------------|

G|----------------------------------------------------------------|
D|--------------------------------6-------------------------------|
A|6---------------6-------------------------------6---------------|
E|----------------------------------------------------------------|
Suggest correction
Give kudos to tab author, rate the tab!
1 2 3 4 5
comments
print report bad tab
guest
You may want to rate the tab now too:
select rating
Wanna post a correction for this tab? Suggest correction