Oops, an error
Loading. Please wait.

Heartbeat Tab

version 1
version 1

Whole song

Interactive

34,812 views 63 this week
3 commentsread comments
1 2 3 4 5
x 5
add to favorites
launch autoscroll
font size
0
reset
how to read this tab
guitar tuner
backing track
0:00
0:00
Autoscroll
slow
fast
+/-
esc
set tempo
stop
Author
Difficulty
[Intro]
e|-12-12-12-14-12--10-10-10-12-10--12-12-12-14-12--10-10-10-12-10-|
B|-14-14-14-15-14--12-12-12-14-12--14-14-14-15-14--12-12-12-14-12-|
G|----------------------------------------------------------------|
D|----------------------------------------------------------------|
A|----------------------------------------------------------------|
E|----------------------------------------------------------------|

[Chorus]
A
Heartbeat,
           D            E           A
Why do you miss when my baby kisses me?
A
Heartbeat,
           D              E          A
Why does a love kiss stay in my memory?
E
Piddly pat
  D                  A
I know that new love thrills me
E  D                   A       E
 I know that true love will be-e
A
Heartbeat
           D            E           A
Why do you miss when my baby kisses me?

[Middle 8] 
(Solo)
e|---------------12-14~-14~-14-12--12-------|
B|-/14-14~-14-15-14-15~-15~-15-14--14-15-15-|
G|-/14-14~-14-14----------------------14-14-|
D|------------------------------------------|
A|------------------------------------------|
E|------------------------------------------|

[Instrumental]
e|-12-12-12-14-12--10-10-10-12-10--12-12-12-14-12--10-10-10-12-10-|
B|-14-14-14-15-14--12-12-12-14-12--14-14-14-15-14--12-12-12-14-12-|
G|----------------------------------------------------------------|
D|----------------------------------------------------------------|
A|----------------------------------------------------------------|
E|----------------------------------------------------------------|

[Chorus]
A
Heartbeat
           D            E                A
Why do you skip when my babies lips meet mine?
A
Heartbeat
           D             E              A
Why do you flip and give me a skip each sign?
E
Piddly pat
    D                 A
And sing to me love's story
E    D                  A     E
 And bring to me love's glory-e
A
Heartbeat
           D            E           A
Why do you miss when my baby kisses me?

[Instrumental]
e|-12-12-12-14-12--10-10-10-12-10--12-12-12-14-12--10-10-10-12-10-|
B|-14-14-14-15-14--12-12-12-14-12--14-14-14-15-14--12-12-12-14-12-|
G|----------------------------------------------------------------|
D|----------------------------------------------------------------|
A|----------------------------------------------------------------|
E|----------------------------------------------------------------|

(There's a little riff after second line (such as "Why do you miss when my baby kisses 
Here's how it goes)
   A          E          A          E
e|----------------------------------------------|
B|-5-5-5-7-5--3-3-3-5-3--5-5-5-7-5--3-3-3-5-3-x-|
G|-6-6-6-7-6--4-4-4-6-4--6-6-6-7-6--4-4-4-6-4-x-|
D|----------------------------------------------|
A|----------------------------------------------|
E|----------------------------------------------|

(And there's this little fill after the lines "I know that new love thrills me" and "And 
to me love's story". This is it)
   A                       E
e|------------------------------|
B|-14-------12----------------x-|
G|-14-------14-------14----13-x-|
D|----14-14----14-14-14-14-14-x-|
A|------------------------------|
E|------------------------------|


************************************

| ~  Vibrato
| /  Slide up
| x  Dead note

************************************
Suggest correction
comments
print report bad tab
3 comments total.
+1 reply
Greg Harper 3,922 Feb 10, 2008 08:33 AM

Brad loves this song.

+1 reply
Lunasco_23 187 Jul 29, 2012 05:00 AM

Who's Brad?

+4 reply
lucaspassarelli 10 Mar 11, 2016 03:16 PM

I guess we will never know who is Brad =(

guest
You may want to rate the tab now too:
select rating
Wanna post a correction for this tab? Suggest correction