Oops, an error
Loading. Please wait.

Raining In My Heart bass

22 views 1 this week
no commentswrite comment
1 2 3 4 5
3 more votes to show rating
add to favorites
×
Save as Personal and add changes to this tab that will be seen only by you. Learn more ›
×
You can save this tab as Personal to edit and correct it or add notes. All changes will be seen only by you. Learn more »
launch autoscroll
font size
0
reset
guitar tuner
edit
Autoscroll
slow
fast
+/-
esc
set tempo
stop
Raining In My Heart
Track recorded by Buddy Holly in 1959 and released as the ‘B’ side to
It Doesn’t Matter Anymore.  Peaked at #88 in Billboard chart
Tab by bass50611. As original bass line. Shame it wasn’t single in its
Own right, such a great song.

Intro:
G|----------------------------------------------|
D|----------------------------------------------|
A|-10----10----10----10----12----12-------------|
E|-------------------------------------10----10-|

Verse 1:
G|-------------------------------------------------------------------|
D|-------------------------------------------------------------------|
A|-10----10----10----10----10----10----10----10----------------------|
E|------------------------------------------------8----8----10----10-|

Interlude:
G|----------------------|
D|----------------------|
A|-10----------12-------|
E|-------12----------10-|

Verse 2:
G|-------------------------------------------------------------------|
D|-------------------------------------------------------------------|
A|-10----10----10----10----10----10----10----10----------------------|
E|------------------------------------------------8----8----10----10-|

Interlude:
G|----------------------|
D|----------------------|
A|-10----------10-------|
E|-------10----------10-|

Middle 8:
G|------------------------------------------------------------------------|
D|------------------------------------------------------------------------|
A|------------10----10---------10---------10---------------12----12----12-|
E|-x----10----------------8----------8----------12----12------------------|

                  (Break)
G|------------------|
D|------------------|
A|-12--------12-----|
E|-------10------10-|

Verse 3:
G|-------------------------------------------------------------------|
D|-------------------------------------------------------------------|
A|-10----10----10----10----10----10----10----10----------------------|
E|------------------------------------------------8----8----10----10-|

Interlude:
G|----------------------|
D|----------------------|
A|-10----------10-------|
E|-------10----------10-|

Instrumental 1:
G|-------------------------------------------------------------------|
D|-------------------------------------------------------------------|
A|-10----10----10----10----10----10----10----10----------------------|
E|------------------------------------------------8----8----10----10-|

Interlude:
G|----------------------|
D|----------------------|
A|-10----------10-------|
E|-------10----------10-|

Instrumental 2:
G|-------------------------------------------------------------------|
D|-------------------------------------------------------------------|
A|-10----10----10----10----10----10----10----10----------------------|
E|------------------------------------------------8----8----10----10-|

Interlude:
G|----------------------|
D|----------------------|
A|-10----------10-------|
E|-------10----------10-|

Middle 8:
G|------------------------------------------------------------------------|
D|------------------------------------------------------------------------|
A|------------10----10---------10---------10---------------12----12----12-|
E|-x----10----------------8----------8----------12----12------------------|

                  (Break)
G|------------------|
D|------------------|
A|-12--------12-----|
E|-------10------10-|

Verse 3:
G|-------------------------------------------------------------------|
D|-------------------------------------------------------------------|
A|-10----10----10----10----10----10----10----10----------------------|
E|------------------------------------------------8----8----10----10-|

Outro:                                                      (Pause)   (End)
G|-----------------------------------------------------------------------|
D|-----------------------------------------------------------------------|
A|-10----------12----------10----------12----------10---------10-------x-|
E|-------10----------10----------10----------10----------8---------------|


            
            
Suggest correction
Creating personal tab
Creating personal tab
You can edit any tab online and save it as your Personal.

You can edit, replace or remove any tab part or add personal notes – all changes will be seen only by you.

Personal tabs can be accessed anytime from any device, even offline.
Learn more »
Give kudos to tab author, rate the tab!
1 2 3 4 5
comments
print report bad tab
guest
You may want to rate the tab now too:
select rating
Wanna post a correction for this tab? Suggest correction