Oops, an error
Loading. Please wait.

Rave On Tab

version 1
version 1

Whole song

Interactive

7,725 views 3 this week
no commentswrite comment
1 2 3 4 5
please rate
add to favorites
launch autoscroll
font size
0
reset
how to read this tab
guitar tuner
Autoscroll
slow
fast
+/-
esc
set tempo
stop
Help us to improve Ultimate-Guitar.com Take our survey!
×
Difficulty
novice
Buddy Holly-Rave On
Tuning-Standard

Verse:

e|--------------------|
B|--------------------|
G|--------------------|
D|---5555555555555555-|
A|---5555555555555555-|
E|---3333333333333333-|

e|-------------------------------------------|
B|-------------------------------------------|
G|---55555555555555555555555-----------------|
D|---55555555555555555555555-555555555555555-|
A|---33333333333335555555555-555555555555555-|
E|---------------------------333333333333333-|
"Rave on, it a crazy feeling and I know it got me reeling

e|------------------------------------------|
B|------------------------------------------|
G|-----------------------------55--77-------|
D|7777777777777777777------55--55--77-------|
A|7777777777777777777------55--33--55-------|
E|5555555555555555555------33---------------|
"When you say you love me, You just rave on"

Bridge:

e|-----------------------------------------------------|
B|-----------------------------------------------------|
G|---55------------------------77---------------55--77-|
D|---55-555555555555555555555--77--777777777-55-55--77-|
A|---33-555555555555555555555--55--777777777-55-33--55-|
E|------333333333333333333333------555555555-33--------|
"Rave on,rave on and tell me/Show me,let me know your love is for real"
 tell me not to feeling lonely,

Outro:

e|----------------------------------------------------|
B|----------------------------------------------------|
G|-------5--7--7777--------5--7-7777-------5--7-777---|
D|---55--5--7--7777--55----5--7-7777--55---5--7-777-5-|
A|---55--3--5--5555--55----3--5-5555--55---3--5-555-5-|
E|---33--------------33---------------33------------3-|
Suggest correction
Give kudos to tab author, rate the tab!
1 2 3 4 5
comments
print report bad tab
guest
You may want to rate the tab now too:
select rating
Wanna post a correction for this tab? Suggest correction