Oops, an error
Loading. Please wait.

Jolka Jolka Pamietasz Tab

version 1
version 1

Whole song

Interactive

50,905 views 30 this week
no commentswrite comment
1 2 3 4 5
excellent!
x 8
add to favorites
launch autoscroll
font size
0
reset
how to read this tab
guitar tuner
Tab Pro tools
  • play this tab
  • loop segment
  • change instrument
  • show fretboard
  • metronome
Autoscroll
slow
fast
+/-
esc
set tempo
stop
Contributor
#----------------------------------PLEASE NOTE--------------------------------#
#This file is the author's own work and represents their interpretation of the#
#song. You may only use this file for private study, scholarship, or research.#
#-----------------------------------------------------------------------------#
#-- File created with Instab - http://www.pconline.com/~smcarey/instab.html --#
#-----------------------------------------------------------------------------#

Author/Artist: Budka Suflera
Title: Jolka pamietasz
Transcribed by: KKx
Email: KKx@poczta.fm

-|--2------2-2-----2-2-----2-2-------2--2-----2---0---0----------------------|
-|-------3-------3-------3--------3--------3--------2----0---2-3-------------|
-|---------------------------------------------------------------4-----------|
-|-----4-------4-------4-------4--------4------------------4-------4---------|
-|------------------------------------------------0------2-------------------|
-|---------------------------------------------------------------------------|
                                 Jolka, Jolka pamietasz lato ze snu

-|---------2---2--0-----0------------------------2-----2----0-----0----------|
-|---2-3-----3-------2------0---2-3--------2-3------3----------2-------------|
-|----------------------------------4----------------------------------------|
-|---------0------------------4-------4----------0---------------------------|
-|----------------0---------2-------------------------------0----------------|
-|---------------------------------------------------------------------------|
    Gdy pisalas tak mi zle                Urwij sie chocby zaraz

-|---3--2--0----------------2----2----0-----0--------------------------------|
-|-------------------2--3-----3----------2----------------3-3-----3-3-----3--|
-|--------------4---------------------------------------4-------4-------4----|
-|----------------4---------0-----------------------5---------5-------5------|
-|--------------2---------------------0-------------5------------------------|
-|---0------------------------------------------------3----------------------|
    Cos ze mna zrob. Nie zostawiaj tu samej      No nie

-|-----------2-----2---0-----0---------------------------------2-----2-------|
-|--2--3--------3---------2-------0------2--3----------2--3-------3----------|
-|---------------------------------------------4-----------------------------|
-|-----------0-----------------------4-----------4-------------0-------------|
-|---------------------0----------2------------------------------------------|
-|---------------------------------------------------------------------------|
   Zebrzac wciaz o benzyne      Gnalem przez noc     Silnik rzezil

-|----0----0---------------------------2-----2----0-----0--------------------|
-|-------2-----0-----2-3---------2--3-----3----------2-----------------------|
-|------------------------4--------------------------------------------------|
-|----------------4---------4----------0-------------------------------------|
-|----0--------2----------------------------------0--------------------------|
-|---------------------------------------------------------------------------|
    Ostatkiem sil                Aby byc znowu w tobie

-|----3---2---0------------------2---2-----0---0-----------------------------|
-|------------------------2--3-----3---3-----2---------------3-3-----3-3---3-|
-|----------------4----------------------------------------4-------4------4--|
-|------------------4------------0---------------------5---------5-------5---|
-|----------------2------------------------0-----------5---------------------|
-|----0--------------------------------------------------3-------------------|
    Smiac sie i klac   Wszystko bylo tak proste w te dni

-|-----------2---2-----0----0------------------------------------------------|
-|---2--3------3----------2--------0---2--3----------------------------------|
-|--------------------------------------------4------------------------------|
-|-----------0-----------------------4----------4----------------------------|
-|---------------------0-----------2-----------------------------------------|
-|---------------------------------------------------------------------------|
    Dziecko spalo za sciana      Czujne jak ptak

-|----------2---2-----0------0--------------------------2---2----0-----0-----|
-|---2--3-----3-----------2--------0---2-3-------2--3-----3---------2--------|
-|-----------------------------------------4---------------------------------|
-|----------0------------------------4-------4----------0--------------------|
-|--------------------0------------2-----------------------------0-----------|
-|---------------------------------------------------------------------------|
   Niechaj Bog wyprostuje mu sny                Powiedzialas ze nigdy

-|-----3--2--0------------------2---2-----0-----0----------------------------|
-|-----------------------2--3-----3----------2--------------3-3-----3-3----3-|
-|--------------4-----------------------------------------4-------4------4---|
-|----------------4-------------0-------------------5---5-------5------5-----|
-|--------------2-------------------------0---------5------------------------|
-|-----0----------------------------------------------3----------------------|
   Ze nigdy az tak     Slodkie byly jak krew twoje lzy

-|-------3-------------------------------------------------------------------|
-|-----3--------2-3-------2-3-------2-3-------2-3----------------------------|
-|---4---------------4---------4--------4------------------------------------|
-|-5---------4---------4---------4--------4----------------------------------|
-|---------2---------2---------2--------2------------------------------------|
-|---------------------------------------------------------------------------|


Ref.

-|--7-7----------------------7------7----------------------------------------|
-|--8-8-----8-7-8-7----------8------8-----8-7-8-7----------------------------|
-|--9-9-----7-7-7-7---7------9------9-----7-7-7-7--7-------------------------|
-|--9-------7---------7------9------------7--------7-------------------------|
-|--7-----------------5------7---------------------5-------------------------|
-|--7------------------------7-----------------------------------------------|
    Emigrowalem           Z objec twych nad ranem

-|---7---------------------------5-5-----------------------------------------|
-|---8------------8-7-8-7------7------7-7-----7------------------------------|
-|---9------------7-7-7-7--7---7-----------7--7---6--------------------------|
-|---9---------------------7---------------7------7--------------------------|
-|---7---------------------5----------------------7--------------------------|
-|---7--------------------------------------------5--------------------------|
    Dzien mnie wyganial        Noca znow wracalem

-|--7-7----------------------7--7--------------------------------------------|
-|--8-8-----8-7-8-7----------8--8----------8-7-8-7---------------------------|
-|--9-9-----7-7-7-7---7------9--9----------7-7-7-7-7-------------------------|
-|--9-------7---------7------9-------------7-------7-------------------------|
-|--7-----------------5------7---------------------5-------------------------|
-|--7------------------------7-----------------------------------------------|
   Dane nam bylo           Slonca Zacmienie

-|---7---------------------------5-5------------------------------------------|
-|---8------------8-7-8-7------7------7-7-----7-------------------------------|
-|---9------------7-7-7-7--7---7-----------7--7-------------------------------|
-|---9---------------------7---------------7------7----------7----------------|
-|---7---------------------5----------------------7--5h7p5h7-7----------------|
-|---7--------------------------------------------5----------5----------------|
   Nastepne bedzie             Moze za sto lat

-|---------2------2--0-----0-------------------------------------------------|
-|--2-3--------3--------2------0----2-3--------------------------------------|
-|-----------------------------------------4---------------------------------|
-|---------0----------------------4----------4-------------------------------|
-|-------------------0---------2-----------2---------------------------------|
-|---------------------------------------------------------------------------|
    Plaza szly zakonnice       A slonce w dol

-|----------2----2-0-----0-------------------------------2---2---0-----0-----|
-|--2--3------3-------2------0----2-3--------2---3---------3--------2--------|
-|-------------------------------------4-------------------------------------|
-|----------0------------------4---------4---------------0-------------------|
-|-----------------0---------2---------2-------------------------0-----------|
-|---------------------------------------------------------------------------|
    Wciaz spadalo nie mogac spasc           Maz tam w swiecie za funtem

-|---3---2--0----------------2-----2----0-----0------------------------------|
-|----------------------2-3-----3----------2---------------3-3-----3-3-----3-|
-|---------------4---------------------------------------4-------4-------4---|
-|-----------------4---------0---------------------5---5-------5-------5-----|
-|---------------2----------------------0----------5-------------------------|
-|---0-----------------------------------------------3-----------------------|
     Odkladal funt     Na toyote przepiekna az strach

-|-------3------2---2---0---0------------------------------------------------|
-|-----3----------3-------2------0---2-3-------------------------------------|
-|---4------------------------------------4----------------------------------|
-|-5------------0------------------4--------4--------------------------------|
-|----------------------0--------2--------2----------------------------------|
-|---------------------------------------------------------------------------|
    Maz twoj wielbi porzadek     I pelne szklo

-|---------2-----2----0-----0----------------------------2----2-0-----0------|
-|---2-3------3----------2-------0----2-3---------2--3------3------2---------|
-|-----------------------------------------4---------------------------------|
-|---------0-----------------------4----------4----------0-------------------|
-|--------------------0----------2---------2--------------------0------------|
-|---------------------------------------------------------------------------|
    Narzeczona mial kiedys jak sen                Z autobusem arabow

-|-3--2--0-----------------2-----2-----0-----0-------------------------------|
-|-------------------2--3-----3-----------2---------------3-3-----3-3-----3--|
-|------------4-----------------------------------------4-------4-------4----|
-|--------------4----------0------------------------5---------5-------5------|
-|------------2------------------------0------------5------------------------|
-|-0--------------------------------------------------3----------------------|
   Zdradzila go     Nigdy nie byl juz soba      O nie!

-|-------3-------------------------------------------------------------------|
-|-----3--------2-3-------2-3-------2-3-------2-3----------------------------|
-|---4---------------4---------4--------4------------------------------------|
-|-5---------4---------4---------4--------4----------------------------------|
-|---------2---------2---------2--------2------------------------------------|
-|---------------------------------------------------------------------------|


Ref.


-|--7-7----------------------7------7----------------------------------------|
-|--8-8-----8-7-8-7----------8------8-----8-7-8-7----------------------------|
-|--9-9-----7-7-7-7---7------9------9-----7-7-7-7--7-------------------------|
-|--9-------7---------7------9------------7--------7-------------------------|
-|--7-----------------5------7---------------------5-------------------------|
-|--7------------------------7-----------------------------------------------|
    Emigrowalem           z objec twych nad ranem

-|---7---------------------------5-5-----------------------------------------|
-|---8------------8-7-8-7------7------7-7-----7------------------------------|
-|---9------------7-7-7-7--7---7-----------7--7---6--------------------------|
-|---9---------------------7---------------7------7--------------------------|
-|---7---------------------5----------------------7--------------------------|
-|---7--------------------------------------------5--------------------------|
    Dzien mnie wyganial        Noca znow wracalem

-|--7-7----------------------7--7--------------------------------------------|
-|--8-8-----8-7-8-7----------8--8----------8-7-8-7---------------------------|
-|--9-9-----7-7-7-7---7------9--9----------7-7-7-7-7-------------------------|
-|--9-------7---------7------9-------------7-------7-------------------------|
-|--7-----------------5------7---------------------5-------------------------|
-|--7------------------------7-----------------------------------------------|
   Dane nam bylo           Slonca Zacmienie

-|---7---------------------------5-5------------------------------------------|
-|---8------------8-7-8-7------7------7-7-----7-------------------------------|
-|---9------------7-7-7-7--7---7-----------7--7-------------------------------|
-|---9---------------------7---------------7------7----------7----------------|
-|---7---------------------5----------------------7--5h7p5h7-7----------------|
-|---7--------------------------------------------5----------5----------------|
   Nastepne bedzie             Moze za sto lat

-|------------2-----2-0-----0----------------------2---2--0---0--------------|
-|--2--3---------3-------2-----0---2-3--------2-3----3------2-----0---2-3----|
-|---------------------------------------4--------------------------------4--|
-|------------0------------------4---------4-------0----------------4------4-|
-|--------------------0--------2---------2----------------0-------2-------2--|
-|---------------------------------------------------------------------------|
  W wielkiej zylismy wannie    I rzadko tak wypelzalismy na suchy lad

-|----------2---2----0-----0-----3--2-0--------------------------------------|
-|--2--3------3---3-----2----------------------------------------------------|
-|------------------------------------------4--------------------------------|
-|----------0---------------------------------4------------------------------|
-|-------------------0----------------------2--------------------------------|
-|-------------------------------0-------------------------------------------|
    Czarodziejka gorzalka       Tanczyla w nas

-|--------2---2---0---0------------------------------------------------------|
-|---2-3----3--3----2-------------3-3-----3-3-----3--------------------------|
-|------------------------------4-------4-------4----------------------------|
-|--------0-----------------5---------5-------5------------------------------|
-|----------------0---------5------------------------------------------------|
-|----------------------------3----------------------------------------------|
    Meta byla o dwa kroki stad

-|------------2----2----0----0--------------------------2---2----------------|
-|--2--3---------3---3-----2-----0---2-3---------2-3------3------------------|
-|---------------------------------------4-----------------------------------|
-|------------0--------------------4-------4------------0--------------------|
-|----------------------0--------2-------2-----------------------------------|
-|---------------------------------------------------------------------------|
   Nie wiem ciagle dlaczego zaczelo sie tak

-|----------2---2----0------0------------------------------------------------|
-|--2-3-------3----------2--------0----2-3-----------------------------------|
-|-----------------------------------------4---------------------------------|
-|----------0-----------------------4--------4-------------------------------|
-|-------------------0------------2--------2---------------------------------|
-|---------------------------------------------------------------------------|
    Czemu zgaslo    tez nie wie nikt

-|-----------2----2--0----0--------3--2--0-----------------------------------|
-|--2--3--------3-------2----------------------------------------------------|
-|---------------------------------------------4-----------------------------|
-|-----------0-----------------------------------4---------------------------|
-|-------------------0-------------------------2-----------------------------|
-|---------------------------------0-----------------------------------------|
   Sa wciaz rozne kolo mnie   Nie budze sie sam

-|------2------2------0-----0----------------------------------------3-------|
-|-2-3------3------------2-------------3-3------3-3-------3-3------3---------|
-|-----------------------------------4--------4--------4---------4-----------|
-|------0------------------------5----------5--------5---------5-------------|
-|--------------------0----------5-------------------------------------------|
-|---------------------------------3-----------------------------------------|
   Ale nic nie jest proste w te dni


 SOLO:

-|---------------------------------------------------------------------------|
-|--10-------------------------------------------------10----10-10--12~------|
-|-----7-9-9/11~-11/12-11-9----7---------7-9-11--11-11-----------------------|
-|--------------------------11---9\7/9---------------------------------------|
-|---------------------------------------------------------------------------|
-|---------------------------------------------------------------------------|


-|---------14--14h15--12~-12h14-14-14--14\12-10h12-10~-----------------------|
-|------------------------------------------------------12-12/15-12-10-------|
-|---------------------------------------------------------------------------|
-|--12-14--------------------------------------------------------------------|
-|---------------------------------------------------------------------------|
-|---------------------------------------------------------------------------|


-|---------------------------------------------------------12----------------|
-|--12-10----10-----10-------------------15\12-12h15p12-12-------------------|
-|--------11--------------9--------------------------------------------------|
-|---------------11----11-----9-9\7/9--------------------------12--14--------|
-|---------------------------------------------------------------------------|
-|---------------------------------------------------------------------------|


-|---------------------------------------------------------------------------|
-|---------------------------------------12--10^12-------15-15-15-12----12---|
-|-----------11^12^11--9----11p9----9--------------------------------14------|
-|-12-14-16--------------11------11---9~-----------12-14---------------------|
-|---------------------------------------------------------------------------|
-|---------------------------------------------------------------------------|


-|---------------------------------------------------------------------------|
-|---------------------------------------------------------------------------|
-|--14-11-14p11----11-14p11----11--9^11--9^11--------------------------------|
-|--------------14----------14----------------12-14-16~-16-16-14-14-12-11-9--|
-|---------------------------------------------------------------------------|
-|---------------------------------------------------------------------------|


-|-----17^19-17-19-17-----------12/14-14-14-14----14-14-14-12h14--14p12------|
-|--15----------------19----19-----------------------------------------------|
-|-----------------------19--------------------------------------------------|
-|---------------------------------------------------------------------------|
-|---------------------------------------------------------------------------|
-|---------------------------------------------------------------------------|


-|-10-12-14-12h14-12-12/14-14~-12-10-12-----14-15-17-17/19-17-19p17-19p17-19-|
-|-------------------------------------12-15---------------------------------|
-|---------------------------------------------------------------------------|
-|---------------------------------------------------------------------------|
-|---------------------------------------------------------------------------|
-|---------------------------------------------------------------------------|
comments
print report bad tab
I want to post or [tab]
guest
You may want to rate the tab now too:
select rating
Please do not post tabs as comments. Select "correction" instead!