Oops, an error
Loading. Please wait.

Do I Have To Come Right Out And Say It bass

883 views 1 this week
no commentswrite comment
1 2 3 4 5
3 more votes to show rating
add to favorites
×
Save as Personal and add changes to this tab that will be seen only by you. Learn more ›
×
You can save this tab as Personal to edit and correct it or add notes. All changes will be seen only by you. Learn more »
launch autoscroll
font size
0
reset
guitar tuner
edit
Autoscroll
slow
fast
+/-
esc
set tempo
stop
Author
Do I Have To Come Right Out And Say It
Buffalo Springfield
Written by Neil Young; released as the B-side to "For What It's Worth", and
on the album "Buffalo Springfield".

Intro:
G|------- ------- ------- -------|------- ------- ------- -------|
D|------------5-------5-------5--|-------------------------------|
A|------------------------3h5----|-------------------------------|
E|3------------------------------|3------------------------------|
                                          Do  I   have to come

Verse:
G|------- ------- ------- -------|------- ------- ------- -------|
D|-------------------------------|5---5-------5-------5-------5--|
A|3---3-------3-------3---0h3-5--|------------------------3h5----|
E|-------------------------------|-------------------------------|
  right   out and say it,                 tell you that you


G|------- ------- ------- -------|------- ------- ------- -------|
D|-------------------------------|5-----------5-------5-------5--|
A|3---3-------3-------3---0h3-5--|------------------------3h5----|
E|-------------------------------|-------------------------------|
  look so     fine?                       Do  I   have to come


G|------- ------- ------- -------|------- ----2-- ----0-- ----2--|
D|-------------------------------|------------------------2h4----|
A|3---3-------3---2---2-------2--|0------------------------------|
E|-------------------------------|-------------------------------|
  right   out and ask you to be mine?


G|------- ------- ------- -------|
D|-------------------------------|
A|5------------------------------|
E|----------------------------3--|
          If  it  was     a

Verse:
G|------- ------- ------- -------|------- ------- ------- -------|
D|-------------------------------|5---5-------5-------5-------5--|
A|3---3-------3-------3---0h3-5--|------------------------3h5----|
E|-------------------------------|-------------------------------|
  game,   I could play    it,             tryin'  make it, but I'm
                                              to

G|------- ------- ------- -------|------- ------- ------- -------|
D|-------------------------------|5---5-------5-------5-------5--|
A|3---3-------3-------3---0h3-5--|------------------------3h5----|
E|-------------------------------|-------------------------------|
      lo  -   sing time.              I've got to bring you   in,


G|------- ------- ------- -------|------- ----2-- ----0-- ----2--|
D|-------------------------------|------------------------2h4----|
A|3---3-------3---2-----------0--|0------------------------------|
E|-------------------------------|-------------------------------|
      you're overworking      my  mind.
  ooooooooooooooooooooooooooooooooooooooooooooooooooooooooooooooo

G|------- ------- ------- -------|
D|-------------------------------|
A|5------------------------------|
E|-------------------------------|

  ooh
Bridge:
G|------- ------- ------- -------|------- ------- ------- -------|
D|5------------------------------|3---3-------3------------------|
A|-------------------------------|----------------0---2-------3--|
E|-------------------------------|-------------------------------|
  In  -   de- ci  -   sion is     crow -  ding me,            I


G|------- ------- ------- -------|------- ------- ------- -------|
D|-------------------------------|5---5-------5-------5----------|
A|5---5-------5-------5---0h3-5--|----------------------------3--|
E|-------------------------------|------------------------5------|
  have    no      room    to  spare,                      and I


G|------- ------- ------- -------|------- ------- ------- -------|
D|-------------------------------|-------------------------------|
A|5---5-------5-------5---0h3-5--|7-----------7-------7-------7--|
E|-------------------------------|-------------------------------|
  can't   be- lieve   she         cared.


G|------- ------- ------- -------|------- ------- ------- -------|
D|5-----------5-----------5------|3-------3----------------------|
A|--------------------5----------|------------0-------2-------3--|
E|-------------------------------|-------------------------------|
  Like    a   dream,  she has     ta- ken     me,             and


G|------- ------- ------- -------|------- ------- ------- -------|
D|-------------------------------|5---5-------5-------5----------|
A|5---5-------5-------5-------3--|----------------------------3--|
E|------------------------5------|------------------------5------|
  now     I   don't   know    where,                      and a


G|------- ------- ------- -------|------- ------- ------- -------|
D|-------------------------------|-------------------------------|
A|5---5-------5-------5---0h3-5--|7---7-------7-------7-------7--|
E|-------------------------------|-------------------------------|
  part    of  me      is      scared,                         The


G|------- ------- ------- -------|------- ------- ------- -------|
D|-------------------------------|----------------------------4--|
A|5---5-------5-------5-------5--|7-----------7-------7----------|
E|-----------------------/5------|-------------------------------|
  part    of  me      I           shared              once    be-


G|------- ------- ------- -------|------- ------- ------- -------|
D|5---5-------5-------3----------|-------------------------------|
A|------------------------5-3----|-------------------------------|
E|----------------------------5--|3------------------------------|
  fore.                                   Do  I   have to come

Verse:
G|------- ------- ------- -------|------- ------- ------- -------|
D|-------------------------------|5-----------5-------5-------5--|
A|3-----------3-------3---0h3-5--|------------------------3h5----|
E|-------------------------------|-------------------------------|
  right   out and say it,                 tell you that you


G|------- ------- ------- -------|------- ------- ------- -------|
D|------------3------------------|-------------------------------|
A|3------------------------------|3-----------3-------3-------1--|
E|------------------------3---5--|------------------------3------|
  look so     fine?                       Do  I   have to come
                 (look    so      fine)

G|------- ------- ------- -------|------- ------- ------- -------|
D|3---3-------3---2-----------2--|-------------------------------|
A|-------------------------------|5-----------5---3-----------3--|
E|-------------------------------|-------------------------------|
  right   out and ask you to be mine?
  aaaaaaaaaaaaaaaaaaaaaaaaaaaaaaaaaaaaaaaaaaaaaaaaaaaaaaaaaaaaaaa

G|------- ------- ------- -------|
D|5------------------------------|
A|-------------------------------|
E|-------------------------------|

  aah
Verse (solo):
G|------- ------- ------- -------|------- ------- ------- -------|
D|------------3------------------|5---5-------5-------5-------5--|
A|3-----------------------3----3-|------------------------5------|
E|--------------------3----------|-------------------------------|



G|------- ------- ------- -------|------- ------- ------- -------|
D|-------------------------------|5-----------5---5---5-------5--|
A|3-----------3-------3---0h3-5--|------------------------3h5----|
E|-------------------------------|-------------------------------|



G|------- ------- ------- -------|------- ----2-- ----0-- ----2--|
D|-------------------------------|------------------------2h4----|
A|3---3-------3---2-----------0--|0------------------------------|
E|-------------------------------|-------------------------------|



G|------- ----7-- ----5-- -------|------- ------- ------- -------|
D|------------------------7---4--|-------------------------------|
A|5---5--------------------------|5------------------------------|
E|-------------------------------|-------------------------------|


Bridge:
G|------- ------- ------- -------|------- ------- ------- -------|
D|5------------------------------|3-----------3------------------|
A|-------------------------------|----------------0---2-------3--|
E|-------------------------------|-------------------------------|
  In  -   de- ci  -   sion is     crow -  ding me,            I


G|------- ------- ------- -------|------- ------- ------- -------|
D|-------------------------------|5---5-------5-------5----------|
A|5---5-------5-------5-------3--|----------------------------3--|
E|------------------------5------|------------------------5------|
  have    no      room    to  spare,                      and I


G|------- ------- ------- -------|------- ------- ------- -------|
D|-------------------------------|5---5--------------------------|
A|5---5-------5-------5-------3--|------------7-----------7------|
E|------------------------5------|--------------------7----------|
  can't   be- lieve   she         cared.


G|------- ------- ------- -------|------- ------- ------- -------|
D|5-----------5-----------5------|3-------3----------------------|
A|--------------------5----------|------------0-------2---3---5--|
E|-------------------------------|-------------------------------|
  Like    a   dream,  she has     ta- ken     me,             and


G|------- ------- ------- -------|------- ------- ------- -------|
D|-------------------------------|5---5-------5-------5----------|
A|------------5-------5-------3--|----------------------------3--|
E|------------------------5------|------------------------5------|
  now     I   don't   know    where,                      and a


G|------- ------- ------- -------|------- ------- ------- -------|
D|-------------------------------|----------------9--------------|
A|5---5-------5-------5----------|7-----------7-----------7------|
E|------------------------5---8--|----------------------------5--|
  part    of  me      is      scared,                         The


G|------- ------- ------- -------|------- ------- ------- -------|
D|-------------------------------|----9-----------9-----------4--|
A|5-------5---------------5---6--|7-----------7-----------7------|
E|------------5-------5----------|-------------------------------|
  part    of  me      I           shared              once    be-


G|------- ------- ------- -------|------- ------- ------- -------|
D|5-----------5---3--------------|-------------------------------|
A|--------------------5---3------|-------------------------------|
E|--------------------------5-3--|3------------------------------|
  fore.                                   Do  I   have to come

Verse:
G|------- ------- ------- -------|------- ------- ------- -------|
D|3-----------3-------3----------|-------------------------------|
A|------------------------0h1-2--|3-----------3-------3---0---1--|
E|-------------------------------|-------------------------------|
  right   out and say it, girl,           tell you that you


G|------- ------- ------- -------|------- ------- ------- -------|
D|3---3-------3-------3----------|-------------------------------|
A|----------------------------1--|3---3-------3-------0---1---3--|
E|------------------------3------|----------------3--------------|
  look so     fine?                       Do  I   have to come
                 (look    so      fine)

G|------- ------- ------- -------|------- ------- ------- -------|
D|3---3-------3---2---2-------2--|-------------------------------|
A|-------------------------------|5-----------5---3--------------|
E|-------------------------------|------------------------3------|
  right   out and ask you to be mine?
  aaaaaaaaaaaaaaaaaaaaaaaaaaaaaaaaaaaaaaaaaaaaaaaaaaaaaaaaaaaaaaa

G|------- ------- ------- -------|
D|5------------------------------|
A|-------------------------------|
E|-------------------------------|
          If  it  was     a
  aah
Verse:
G|------- ------- ------- -------|------- ------- ------- -------|
D|3-----------3-------3----------|-------------------------------|
A|------------------------0h1-2--|3-----------3-------3---0---1--|
E|-------------------------------|-------------------------------|
  game,   I could play    it,             tryin'  make it, but I'm
                                              to

G|------- ------- ------- -------|------- ------- ------- -------|
D|3---3-------3-------3----------|-------------------------------|
A|------------------------0h1-2--|3-----------3-------3---0---1--|
E|-------------------------------|-------------------------------|
      lo  -   sing time,              I've got to bring you   in,
                 (lo  -   sing    time)

G|------- ------- ------- -------|------- ------- ------- -------|
D|3---3-------3---2---2-------2--|-------------------------------|
A|-------------------------------|5-----------5---3-----------3--|
E|-------------------------------|-------------------------------|
      you're overworking      my  mind.
  aaaaaaaaaaaaaaaaaaaaaaaaaaaaaaaaaaaaaaaaaaaaaaaaaaaaaaaaaaaaaaa

G|------- ------- ------- -------|
D|5------------------------------|
A|-------------------------------|
E|-------------------------------|
          Do  I   have to come
  aah
Outro:
G|------- ------- ------- -------|------- ------- ------- -------|
D|3-----------3-------3----------|-------------------------------|
A|------------------------0h1-2--|3-----------3-------3---0---1--|
E|-------------------------------|-------------------------------|
  right   out and say it, girl,           tell you that you


G|-------------------------------|---------------------------------|
D|3---3--------------------------|5------------3--2--0-------------|
A|-------------------------------|----------------------3--3-------|
E|-------------------------------|----------------------------5--4-|
  look so     fine?
                 (look    so      fine)

G|------- ------- ------- -------|------- ------- ------- -------|
D|-------------------------------|-------------------------------|
A|-------------------------------|-------------------------------|
E|3------------------------------|-------------------------------|

Please e-mail me for any corrections, or write a comment.

            
            
Suggest correction
Creating personal tab
Creating personal tab
You can edit any tab online and save it as your Personal.

You can edit, replace or remove any tab part or add personal notes – all changes will be seen only by you.

Personal tabs can be accessed anytime from any device, even offline.
Learn more »
Give kudos to tab author, rate the tab!
1 2 3 4 5
comments
print report bad tab
guest
You may want to rate the tab now too:
select rating
Wanna post a correction for this tab? Suggest correction