Oops, an error
Loading. Please wait.
We have an official For What Its Worth tab made by UG professional guitarists. Check out the tab »
×

For What Its Worth tab

version 4
version 4

Whole song

Interactive

Video

  • In this video lesson of For What It's Worth, I sho... Show more
892 views 9 this week
no commentswrite comment
1 2 3 4 5
2 more votes to show rating
add to favorites
×
Save as Personal and add changes to this tab that will be seen only by you. Learn more ›
×
You can save this tab as Personal to edit and correct it or add notes. All changes will be seen only by you. Learn more »
launch autoscroll
font size
0
reset
how to read this tab
guitar tuner
backing track
0:00
0:00
edit
Autoscroll
slow
fast
+/-
esc
set tempo
stop
Author
Difficulty
FOR WHAT IT'S WORTH

As recorded by Buffalo Springfield
(From the 1967 Album BUFFALO SPRINGFIELD)

Words and Music by Stephen Stills

Transcribed by Slowhand


Gtr I (E A D G B E) - 'Richie Furay - 12-string Acoustic Guitar'
Gtr II (E A D G B E) - 'Stephen Stills - Electric Guitar'
Gtr III (E A D G B E) - 'Neil Young - Acoustic Guitar'


 Intro
  Q=99
  E              A                 E
 4/4
  Gtr I (12-string Ac. Gtr.)
    H.       +E  E   +H.       +E  E
|---0--------(0)-0-|-(0)-------(0)-0-|
|---0--------(0)-2-|-(2)-------(2)-0-|
|---1--------(1)-2-|-(2)-------(2)-1-|
|---2--------(2)-2-|-(2)-------(2)-2-|
|---2--------(2)-0-|-(0)-------(0)-2-|
|---0--------(0)---|---------------0-|
|
| Gtr II (Clean El. Gtr. w/ amp tremolo)
|   H     H           H     H
|-<12>-------------|-<7>-------------|
|------------------|-----------------|
|------------------|-----------------|
|------------------|-----------------|
|------------------|-----------------|
|------------------|-----------------|
|
| Gtr III (Ac. Gtr.)
|   W                 H     Q   E  E
|------------------|-----------------|
|------------------|-----------------|
|------------------|-----------------|
|------------------|-----------------|
|------------------|-----------------|
|------------------|---------------0-|


                         A                         E
   +H.               +E  E   +H.               +E  E
|--(0)---------------(0)-0-|-(0)---------------(0)-0-||
|--(0)---------------(0)-2-|-(2)---------------(2)-0-||
|--(1)---------------(1)-2-|-(2)---------------(2)-1-||
|--(2)---------------(2)-2-|-(2)---------------(2)-2-||
|--(2)---------------(2)-0-|-(0)---------------(0)-2-||
|--(0)---------------(0)---|-----------------------0-||
|
|   H          H              H          H
|-<12>---------------------|-<7>---------------------||
|--------------------------|-------------------------||
|--------------------------|-------------------------||
|--------------------------|-------------------------||
|--------------------------|-------------------------||
|--------------------------|-------------------------||
|
|  +Q   a E E +Q   a  E  E   +Q   a E E +Q   a  E  E
|--------------------------|-------------------------||
|--------------------------|-------------------------||
|--------------------------|-------------------------||
|-----------2-(2)----------|----------2-(2)----------||
|-------2s4--------2s=4--0-|-(0)--2s4--------2s=4----||
|--(0)---------------------|-----------------------0-||


 1st Verse
                          A                             E
   +Q     E S S  E  E   E E   +E  +Q      S S  E  E   E S S
|--(0)----0-0-0--0--0---x-0-|-(0)-(0)-----0-0--0--0---x-0-0-|
|--(0)----0-0-0--0--0---x-2-|-(2)-(2)-----2-2--2--2---x-0-0-|
|--(1)----1-1-1--1--1---x-2-|-(2)-(2)-----2-2--2--2---x-1-1-|
|--(2)----2-2-2--2--2---x-2-|-(2)-(2)-----2-2--2--2---x-2-2-|
|--(2)----2-2-2--2--2---x-0-|-(0)-(0)-----0-0--0--0---x-2-2-|
|--(0)----0-0-0--0--0---x---|---------------------------0-0-|
|
|   H            H             H               H
|-<12>----------------------|-<7>---------------------------|
|---------------------------|-------------------------------|
|---------------------------|-------------------------------|
|---------------------------|-------------------------------|
|---------------------------|-------------------------------|
|---------------------------|-------------------------------|
|
|  +Q   a E E   +Q    a E E   +Q      a E E   +Q    a E E
|---------------------------|-------------------------------|
|---------------------------|-------------------------------|
|---------------------------|-------------------------------|
|-----------2---(2)---------|-------------2---(2)-----------|
|-------2s4-----------2s4-0-|-(0)-----2s4-----------2s4-----|
|--(0)----------------------|---------------------------0---|


                          A                            E
    Q     E S S  E  E   E S S    Q     E S S  E  E   E S S
|---0-----0-0-0--0--0---x-0-0-|--0-------0-0--0--0---x-0-0----|
|---0-----0-0-0--0--0---x-2-2-|--2-------2-2--2--2---x-0-0----|
|---1-----1-1-1--1--1---x-2-2-|--2-------2-2--2--2---x-1-1----|
|---2-----2-2-2--2--2---x-2-2-|--2-------2-2--2--2---x-2-2----|
|---2-----2-2-2--2--2---x-0-0-|--0-------0-0--0--0---x-2-2----|
|---0-----0-0-0--0--0---x-----|------------------------0-0----|
|
|   H            H               H            H
|-<12>------------------------|-<7>---------------------------|
|-----------------------------|-------------------------------|
|-----------------------------|-------------------------------|
|-----------------------------|-------------------------------|
|-----------------------------|-------------------------------|
|-----------------------------|-------------------------------|
|
|  +Q   a E E   +Q    a E E     +Q   a E E   +Q    a E E
|-----------------------------|-------------------------------|
|-----------------------------|-------------------------------|
|-----------------------------|-------------------------------|
|-----------2---(2)-----------|----------2---(2)--------------|
|-------2s4-----------2s4-0---|-(0)--2s4-----------2s4--------|
|--(0)------------------------|------------------------0------|


                          A                          E
    Q     E S S  E  E   E E    Q     E S S  E  E   E S S
|---0-----x-0-0--0--0---x-0-|--0-----0-0-0--0--0---x-0-0-|
|---0-----x-0-0--0--0---x-2-|--2-----2-2-2--2--2---x-0-0-|
|---1-----x-1-1--1--1---x-2-|--2-----2-2-2--2--2---x-1-1-|
|---2-----x-2-2--2--2---x-2-|--2-----2-2-2--2--2---x-2-2-|
|---2-----x-2-2--2--2---x-0-|--0-----0-0-0--0--0---x-2-2-|
|---0-----x-0-0--0--0---x---|------------------------0-0-|
|
|   H            H             H            H
|-<12>----------------------|-<7>------------------------|
|---------------------------|----------------------------|
|---------------------------|----------------------------|
|---------------------------|----------------------------|
|---------------------------|----------------------------|
|---------------------------|----------------------------|
|
|  +Q   a E E   +Q    a E E   +Q   a E E   +Q    a E E
|---------------------------|----------------------------|
|---------------------------|----------------------------|
|---------------------------|----------------------------|
|-----------2---(2)---------|----------2---(2)-----------|
|-------2s4-----------2s4-0-|-(0)--2s4-----------2s4-----|
|--(0)----------------------|------------------------0---|


                          A                    Asus4   A
    Q     E S S  E  E   E S S    Q     Q    S  E S   E S S
|---0-----x-0-0--0--0---0-0-0-|--0-----0----0--0-0---0-0-0----||
|---0-----x-0-0--0--0---0-2-2-|--2-----2----2--3-3---3-2-2----||
|---1-----x-1-1--1--1---1-2-2-|--2-----2----2--2-2---2-2-2----||
|---2-----x-2-2--2--2---2-2-2-|--2-----2----2--2-2---2-2-2----||
|---2-----x-2-2--2--2---2-0-0-|--0-----0----0--0-0---0-0-0----||
|---0-----x-0-0--0--0---0-----|-------------------------------||
|
|   H            H               H          H
|-<12>------------------------|-<7>---------------------------||
|-----------------------------|-------------------------------||
|-----------------------------|-------------------------------||
|-----------------------------|-------------------------------||
|-----------------------------|-------------------------------||
|-----------------------------|-------------------------------||
|
|  +Q   a E E   +Q    a E E     +Q   a E E +Q      a E E
|-----------------------------|-------------------------------||
|-----------------------------|-------------------------------||
|-----------------------------|-------------------------------||
|-----------2---(2)-----------|----------2-(2)----------------||
|-------2s4-----------2s4-0---|-(0)--2s4-----------2s4--------||
|--(0)------------------------|------------------------0------||


 Chorus
  E         Dsus2        A                A7         E
    Q   E E  Q   E S S     E  E S S S  S   E  Q  E     H.               +E  E
|---0---x-0--0---0-0-0-|------0---------------0----|---0----------------(0)-0--|
|---0---x-0--3---3-3-3-|------2---3-3---------2----|---0----------------(0)-2--|
|---1---x-1--2---2-2-2-|------2-2-2-2-(0)-----0----|---1----------------(1)-2--|
|---2---x-2--0---0-0-0-|------2-2-2-2---------2----|---2----------------(2)-2--|
|---2---x-2------------|---0----0----------0-------|---2----------------(2)-0--|
|---0---x-0------------|-------------------------0-|---0----------------(0)----|
|
|   H        H             H               H           H          H
|-<12>------<7>--------|-<12>-------------<7>------|-<12>----------------------|
|----------------------|---------------------------|---------------------------|
|----------------------|---------------------------|---------------------------|
|----------------------|---------------------------|---------------------------|
|----------------------|---------------------------|---------------------------|
|----------------------|---------------------------|---------------------------|
|
|  +Q   E E +Q   E E       Q    E   E      H           Q   a E E +Q   a  E  E
|----------------------|---------------------------|---------------------------|
|----------------------|---------------------------|---------------------------|
|----------------------|--------2---0--------------|---------------------------|
|---------2-(2)--x-2---|--(2)----------------------|-----------2-(2)-----------|
|----------------------|---0--------1s=====2-------|-------2s4--------2s=4--0--|
|--(0)-----------------|---------------------------|---0-----------------------|


  +H.               +E  E
|-(0)---------------(0)-0-|
|-(2)---------------(2)-0-|
|-(2)---------------(2)-1-|
|-(2)---------------(2)-2-|
|-(0)---------------(0)-2-|
|-----------------------0-|
|
|  H          H
|-<7>---------------------|
|-------------------------|
|-------------------------|
|-------------------------|
|-------------------------|
|-------------------------|
|
| +Q   a E E +Q   a  E  E
|-------------------------|
|-------------------------|
|-------------------------|
|----------2-(2)----------|
|-(0)--2s4--------2s=4----|
|-----------------------0-|


   +H.               +E  E   +H.               +E  E
|--(0)---------------(0)-0-|-(0)---------------(0)---||
|--(0)---------------(0)-2-|-(2)---------------(2)---||
|--(1)---------------(1)-2-|-(2)---------------(2)---||
|--(2)---------------(2)-2-|-(2)---------------(2)---||
|--(2)---------------(2)-0-|-(0)---------------(0)---||
|--(0)---------------(0)---|-------------------------||
|
|   H          H              H          H
|-<12>---------------------|-<7>---------------------||
|--------------------------|-------------------------||
|--------------------------|-------------------------||
|--------------------------|-------------------------||
|--------------------------|-------------------------||
|--------------------------|-------------------------||
|
|  +Q   a E E +Q   a  E  E   +Q   a E E +Q   a  E  E
|--------------------------|-------------------------||
|--------------------------|-------------------------||
|--------------------------|-------------------------||
|-----------2-(2)----------|----------2-(2)----------||
|-------2s4--------2s=4--0-|-(0)--2s4--------2s=4----||
|--(0)---------------------|-----------------------0-||


 2nd Verse
  E                       A             A7            E
    Q     E S S  E  E   E E    E  E   E S S  E  E   E E
|---0-----x-0-0--0--0---x-0-|--0--0---x-0-0--0--0---x-0-|
|---0-----x-0-0--0--0---x-2-|--2--2---x-2-2--2--2---x-0-|
|---1-----x-1-1--1--1---x-2-|--2--2---x-0-0--0--0---x-1-|
|---2-----x-2-2--2--2---x-2-|--2--2---x-2-2--2--2---x-2-|
|---2-----x-2-2--2--2---x-0-|--0--0---x-0-0--0--0---x-2-|
|---0-----x-0-0--0--0---x---|-------------------------0-|
|
|   H            H             H             H
|-<12>----------------------|-<7>-----------------------|
|---------------------------|---------------------------|
|---------------------------|---------------------------|
|---------------------------|---------------------------|
|---------------------------|---------------------------|
|---------------------------|---------------------------|
|
|  +Q   a E E   +Q    a E E   +Q    a E E   +Q    a E E
|---------------------------|---------------------------|
|---------------------------|---------------------------|
|---------------------------|---------------------------|
|-----------2---(2)---------|-----------2---(2)---------|
|-------2s4-----------2s4-0-|-(0)---2s4-----------2s4---|
|--(0)----------------------|-------------------------0-|


                           A              A7
    E  E   E S S  E  E   E S S    Q     E S S  E  E   E E
|---0--0---x-0-0--0--0---x-0-0-|--0-----x-0-0--0--0---x-0--|
|---0--0---x-0-0--0--0---x-2-2-|--2-----x-2-2--2--2---x-0--|
|---1--1---x-1-1--1--1---x-2-2-|--2-----x-0-0--0--0---x-1--|
|---2--2---x-2-2--2--2---x-2-2-|--2-----x-2-2--2--2---x-2--|
|---2--2---x-2-2--2--2---x-0-0-|--0-----x-0-0--0--0---x-2--|
|---0--0---x-0-0--0--0---x-----|------------------------0--|
|
|   H             H               H            H
|-<12>-------------------------|-<7>-----------------------|
|------------------------------|---------------------------|
|------------------------------|---------------------------|
|------------------------------|---------------------------|
|------------------------------|---------------------------|
|------------------------------|---------------------------|
|
|  +Q    a E E   +Q    a E E     +Q   a E E   +Q    a E E
|------------------------------|---------------------------|
|------------------------------|---------------------------|
|------------------------------|---------------------------|
|------------2---(2)-----------|----------2---(2)----------|
|--------2s4-----------2s4-0---|-(0)--2s4-----------2s4----|
|--(0)-------------------------|------------------------0--|


                           A            A7            E
   +E  E   E S S  E  E   E E   +Q     E S S  E  E   E E
|--(0)-0---x-0-0--0--0---x-0-|-(0)----x-0-0--0--0---x-0-|
|--(0)-0---x-0-0--0--0---x-2-|-(2)----x-2-2--2--2---x-0-|
|--(1)-1---x-1-1--1--1---x-2-|-(2)----x-0-0--0--0---x-1-|
|--(2)-2---x-2-2--2--2---x-2-|-(2)----x-2-2--2--2---x-2-|
|--(2)-2---x-2-2--2--2---x-0-|-(0)----x-0-0--0--0---x-2-|
|--(0)-0---x-0-0--0--0---x---|------------------------0-|
|
|   H             H             H            H
|-<12>-----------------------|-<7>----------------------|
|----------------------------|--------------------------|
|----------------------------|--------------------------|
|----------------------------|--------------------------|
|----------------------------|--------------------------|
|----------------------------|--------------------------|
|
|  +Q    a E E   +Q    a E E   +Q   a E E   +Q    a E E
|----------------------------|--------------------------|
|----------------------------|--------------------------|
|----------------------------|--------------------------|
|------------2---(2)---------|----------2---(2)---------|
|--------2s4-----------2s4-0-|-(0)--2s4-----------2s4---|
|--(0)-----------------------|------------------------0-|


                           A                 A7          A
    E  E   E S S  E  E   E S S    Q     E.   S  E  S S E E
|---0--0---x-0-0--0--0---x-0-0-|--0-----0----0--0--0-0-0-0--||
|---0--0---x-0-0--0--0---x-2-2-|--2-----2----2--2--2-2-2-2--||
|---1--1---x-1-1--1--1---x-2-2-|--2-----2----0--0--0-0-0-2--||
|---2--2---x-2-2--2--2---x-2-2-|--2-----2----2--2--2-2-2-2--||
|---2--2---x-2-2--2--2---x-0-0-|--0-----0----0--0--0-0-0-0--||
|---0--0---x-0-0--0--0---x-----|----------------------------||
|
|   H             H               H             H
|-<12>-------------------------|-<7>------------------------||
|------------------------------|----------------------------||
|------------------------------|----------------------------||
|------------------------------|----------------------------||
|------------------------------|----------------------------||
|------------------------------|----------------------------||
|
|  +Q    a E E   +Q    a E E     +Q   a E  E   +Q      E E
|------------------------------|----------------------------||
|------------------------------|----------------------------||
|------------------------------|----------------------------||
|------------2---(2)-----------|-----------2---(2)-------0--||
|--------2s4-----------2s4-0---|-(0)--2s4--------------4----||
|--(0)-------------------------|----------------------------||


 Chorus
  E         Dsus2         A               A7
  Q     E E  Q    E S S    E  E S S S  S  E   Q     E
|-0-----x-0--0----0-0-0-|-----0---------------0-----------|
|-0-----x-0--3----3-3-3-|-----2---3-3---------2-----------|
|-1-----x-1--2----2-2-2-|-----2-2-2-2-(0)-----0-----------|
|-2-----x-2--0----0-0-0-|-----2-2-2-2---------2-----------|
|-2-----x-2-------------|--0----0---------0---------------|
|-0-----x-0-------------|---------------------------0-----|
|
| E S S Q    E  E Q        E  E S S E     E   E E.    +S
|-------4----2--0-------|---------------------------------|
|---0h2-----------3-----|--2--0---------------------------|
|-----------------------|-------2p0-------2b3-2-2b3r==(2)-|
|-----------------------|-----------2---------------------|
|-----------------------|---------------------------------|
|-----------------------|---------------------------------|
|
| Q     E E +Q    E E      Q    E   E     H
|-----------------------|---------------------------------|
|-----------------------|---------------------------------|
|-----------------------|-------2---0---------------------|
|---------2-(2)---x-2---|-(2)-----------------------------|
|-----------------------|--0--------1s====2---------------|
|-0---------------------|---------------------------------|


  E                          A
  H.                     +E   E
|-0----------------------(0)--0--|
|-0----------------------(0)--2--|
|-1----------------------(1)--2--|
|-2----------------------(2)--2--|
|-2----------------------(2)--0--|
|-0----------------------(0)-----|
|
| E  S S   Q    S  S E    E   E
|----------4---------4-------^0--|
|----0h2--------0h=2------2--^2--|
|--------------------------------|
|--------------------------------|
|--------------------------------|
|--------------------------------|
|
| Q      a E E +Q      a  E   E
|--------------------------------|
|--------------------------------|
|--------------------------------|
|------------2-(2)---------------|
|--------2s4-----------2s=4---0--|
|-0------------------------------|


                            E                                 A
  +H.                 +E     E    +H.                     +E  E
|-(0)-----------------(0)----0--|-(0)---------------------(0)-0-|
|-(2)-----------------(2)----0--|-(0)---------------------(0)-2-|
|-(2)-----------------(2)----1--|-(1)---------------------(1)-2-|
|-(2)-----------------(2)----2--|-(2)---------------------(2)-2-|
|-(0)-----------------(0)----2--|-(2)---------------------(2)-0-|
|----------------------------0--|-(0)---------------------(0)---|
|
| +Q.      S S  Q      E    +E    +E  S S   Q    S  S E    E  E
|-(0)-----------3------5b7==(5)r|=(5)-------4---------4-------0-|
|-(2)------2s5------------------|-----0h2--------0h=2------2----|
|-------------------------------|-------------------------------|
|-------------------------------|-------------------------------|
|-------------------------------|-------------------------------|
|-------------------------------|-------------------------------|
|
| +Q   a E E   +Q   a  E     E    +Q      a E E +Q      a  E  E
|-------------------------------|-------------------------------|
|-------------------------------|-------------------------------|
|-------------------------------|-------------------------------|
|----------2---(2)--------------|-------------2-(2)-------------|
|-(0)--2s4----------2s=4--------|---------2s4-----------2s=4--0-|
|----------------------------0--|-(0)---------------------------|


  +H.                   +E  E
|-(0)-------------------(0)-----||
|-(2)-------------------(2)-----||
|-(2)-------------------(2)-----||
|-(2)-------------------(2)-----||
|-(0)-------------------(0)-----||
|-------------------------------||
|
| +E  E   E E    +Q      E +E
|-(0)-----0-2b4==(2)-----2r(2)--||
|-----2-------------------------||
|-------------------------------||
|-------------------------------||
|-------------------------------||
|-------------------------------||
|
| +Q    a E E    +Q   a  E  E
|-------------------------------||
|-------------------------------||
|-------------------------------||
|-----------2----(2)------------||
|-(0)---2s4-----------2s=4------||
|---------------------------0---||


 3rd Verse
  E                       A              Asus4       E
   E. S   E S S  E  E   E E    Q     E S S  E  E E   E
|--0--0---0-0-0--0--0---x-0-|--0-----x---------------0-|
|--0--0---0-0-0--0--0---x-2-|--2-----x---3--3--3-x---0-|
|--1--1---1-1-1--1--1---x-2-|--2-----x---2--2--2-x---1-|
|--2--2---2-2-2--2--2---x-2-|--2-----x---2--2--2-x---2-|
|--2--2---2-2-2--2--2---x-0-|--0-----x---0--0--0-x---2-|
|--0--0---0-0-0--0--0---x---|------------------------0-|
|
|  W                           W
|--0------------------------|-<5>----------------------|
|---------------------------|--------------------------|
|---------------------------|--------------------------|
|---------------------------|--------------------------|
|---------------------------|--------------------------|
|---------------------------|--------------------------|
|
|                                                |3|
| +Q    a E E   +Q    a E E   +Q   a E E   +Q    E S E
|---------------------------|--------------------------|
|---------------------------|--------------------------|
|---------------------------|--------------------------|
|-----------2---(2)---------|----------2---(2)-----2---|
|-------2s4-----------2s4-0-|-(0)--2s4-----------4---4-|
|-(0)-----------------------|--------------------------|


                          A            A7sus4        E
    Q     E S S  E  E   E E    Q     E S S  E  E E   S S
|---0-----0-0-0--0--0---x-0-|--0-----x-0-0--0--0-x---0-0--|
|---0-----0-0-0--0--0---x-2-|--2-----x-3-3--3--3-x---0-0--|
|---1-----1-1-1--1--1---x-2-|--2-----x-0-0--0--0-x---1-1--|
|---2-----2-2-2--2--2---x-2-|--2-----x-2-2--2--2-x---2-2--|
|---2-----2-2-2--2--2---x-0-|--0-----x-0-0--0--0-x---2-2--|
|---0-----0-0-0--0--0---x---|------------------------0-0--|
|
|   H            H             H            H
|-<12>----------------------|-<7>-------------------------|
|---------------------------|-----------------------------|
|---------------------------|-----------------------------|
|---------------------------|-----------------------------|
|---------------------------|-----------------------------|
|---------------------------|-----------------------------|
|
|                                                |3|
|   Q   a E E   +Q    a E E   +Q   a E E   +Q    E S E
|---------------------------|-----------------------------|
|---------------------------|-----------------------------|
|---------------------------|-----------------------------|
|-----------2---(2)---------|----------2---(2)-----2------|
|-------2s4-----------2s4-0-|-(0)--2s4-----------4---4----|
|---0-----------------------|-----------------------------|


                          A            A7sus4        E
    Q     E S S  E  E   E E    Q     E S S  E  E E   E
|---0-----0-0-0--0--0---x-0-|--0-----x-0-0--0--0-x---0-|
|---0-----0-0-0--0--0---x-2-|--2-----x-3-3--3--3-x---0-|
|---1-----1-1-1--1--1---x-2-|--2-----x-0-0--0--0-x---1-|
|---2-----2-2-2--2--2---x-2-|--2-----x-2-2--2--2-x---2-|
|---2-----2-2-2--2--2---x-0-|--0-----x-0-0--0--0-x---2-|
|---0-----0-0-0--0--0---x---|------------------------0-|
|
|   H            H             H            H
|-<12>----------------------|-<7>----------------------|
|---------------------------|--------------------------|
|---------------------------|--------------------------|
|---------------------------|--------------------------|
|---------------------------|--------------------------|
|---------------------------|--------------------------|
|
|                                                |3|
|   Q   a E E   +Q    a E E   +Q   a E E   +Q    E S E
|---------------------------|--------------------------|
|---------------------------|--------------------------|
|---------------------------|--------------------------|
|-----------2---(2)---------|----------2---(2)-----2---|
|-------2s4-----------2s4-0-|-(0)--2s4-----------4---4-|
|---0-----------------------|--------------------------|


                          A            A7sus4
    Q     E S S  E  E   E E    Q     E S S  E  E E   S S
|---0-----0-0-0--0--0---x-0-|--0-----0-0-0--0--0-x---0-0--||
|---0-----0-0-0--0--0---x-2-|--2-----2-3-3--3--3-x---3-3--||
|---1-----1-1-1--1--1---x-2-|--2-----2-0-0--0--0-x---0-0--||
|---2-----2-2-2--2--2---x-2-|--2-----2-2-2--2--2-x---2-2--||
|---2-----2-2-2--2--2---x-0-|--0-----0-0-0--0--0-x---0-0--||
|---0-----0-0-0--0--0---x---|-----------------------------||
|
|   H            H             H            H
|-<12>----------------------|-<7>-------------------------||
|---------------------------|-----------------------------||
|---------------------------|-----------------------------||
|---------------------------|-----------------------------||
|---------------------------|-----------------------------||
|---------------------------|-----------------------------||
|
|                                                |3|
|   Q   a E E   +Q    a E E   +Q   a E E   +Q    E S E
|---------------------------|-----------------------------||
|---------------------------|-----------------------------||
|---------------------------|-----------------------------||
|-----------2---(2)---------|----------2---(2)-----2------||
|-------2s4-----------2s4-0-|-(0)--2s4-----------4---4----||
|---0-----------------------|-----------------------------||


 Chorus
  E         Dsus2         A       Asus4     A7
  Q     E E  Q    E S S    E    E S S S  S  E    Q    E
|-0-----x-0--0----0-0-0-|-------0----------------0-------|
|-0-----x-0--3----3-3-3-|-------2---3-3----------2-------|
|-1-----x-1--2----2-2-2-|-------2-2-2-2-(0)------0-------|
|-2-----x-2--0----0-0-0-|-------2-2-2-2----------2-------|
|-2-----x-2-------------|--0------0---------0------------|
|-0-----x-0-------------|-----------------------------0--|
|
| E S S Q    E  E Q        E    E Q         E    E E +E
|-------4----2--0-------|--------------------------------|
|---0h2-----------3-----|--2----0------------------------|
|-----------------------|---------2---------2b3==2-2r(2)-|
|-----------------------|--------------------------------|
|-----------------------|--------------------------------|
|-----------------------|--------------------------------|
|
| Q     E E +Q.     E     +E  a E Q         e    E Q
|-----------------------|---------5--------------2-0-----|
|-----------------------|-------------------0------------|
|-----------------------|-----4s6----------------2-0-----|
|---------0-(0)---------|--------------------------------|
|-------------------0---|-(0)----------------------------|
|-0---------------------|--------------------------------|


  E                      A
  H.                 +E   E
|-0------------------(0)--0--|
|-0------------------(0)--2--|
|-1------------------(1)--2--|
|-2------------------(2)--2--|
|-2------------------(2)--0--|
|-0------------------(0)-----|
|
| E  S S E E    +Q.      +E
|--------3-5b7==(5)r=====(5)-|
|----2s5---------------------|
|----------------------------|
|----------------------------|
|----------------------------|
|----------------------------|
|
| Q      E E    +Q.       E
|----------------------------|
|----------------------------|
|----------------------------|
|----------0----(0)----------|
|-------------------------0--|
|-0--------------------------|


                           E
  +H.                  +E  E
|-(0)------------------(0)-0-|
|-(2)------------------(2)-0-|
|-(2)------------------(2)-1-|
|-(2)------------------(2)-2-|
|-(0)------------------(0)-2-|
|--------------------------0-|
|
|  Q       +E  E +E  Q     E
|--5b7r====(5)-5-(5)-5-----3-|
|----------------------------|
|----------------------------|
|----------------------------|
|----------------------------|
|----------------------------|
|
| +E   a E  Q     e  E  Q
|-----------5--------2--0----|
|-----------------0----------|
|------4s6-----------2--0----|
|----------------------------|
|-(0)------------------------|
|----------------------------|


                            A
  +H.                   +E  E   +H.                +E  E
|-(0)-------------------(0)-0-|-(0)----------------(0)---||
|-(0)-------------------(0)-2-|-(2)----------------(2)---||
|-(1)-------------------(1)-2-|-(2)----------------(2)---||
|-(2)-------------------(2)-2-|-(2)----------------(2)---||
|-(2)-------------------(2)-0-|-(0)----------------(0)---||
|-(0)-------------------(0)---|--------------------------||
|
|  |3|
|  E S Q     E +E  Q.           +Q     E E  E  Q       E
|--5p3-------3-(3)------------|--------------------------||
|------5-----------5----------|-(5)----3h5--3----------0-||
|-----------------------------|----------------5---------||
|-----------------------------|--------------------------||
|-----------------------------|--------------------------||
|-----------------------------|--------------------------||
|
|  Q     a E E +Q     a  E  E   +Q   a E E +Q    a  E  E
|-----------------------------|--------------------------||
|-----------------------------|--------------------------||
|-----------------------------|--------------------------||
|------------2-(2)------------|----------2-(2)-----------||
|--------2s4----------2s=4--0-|-(0)--2s4---------2s=4----||
|--0--------------------------|------------------------0-||


 4th Verse
  E                      A7                   A7sus4add6        E
   Q     E S S  E  E   E E   +Q        E      S S  E  E   E     E
|--0-----x-0-0--0--0---x-0-|-(0)-------x------0-0--0--0---x-----0---|
|--0-----x-0-0--0--0---x-2-|-(2)-------x------3-3--3--3---x-----0---|
|--1-----x-1-1--1--1---x-0-|-(0)-------x------0-0--0--0---x-----1---|
|--2-----x-2-2--2--2---x-2-|-(2)-------x------4-4--4--4---x-----2---|
|--2-----x-2-2--2--2---x-0-|-(0)-------x------0-0--0--0---x-----2---|
|--0-----x-0-0--0--0---x---|------------------------------------0---|
|
| +Q     Q      H             E  S S   S    S S S  E  S S S S   S S
|--------------------------|----------------------------------------|
|-(0)----------------------|----------------------------------------|
|--------------------------|-----2-2---2b4==2-2-2--2--2-2-2-2---2-2-|
|--------------------------|----------------------------------------|
|--------------------------|----------------------------------------|
|--------------------------|----------------------------------------|
|
|                                                         |-3-|
| +Q   a E E   +Q    a E E   +Q      a E      E   +Q      E   S E
|--------------------------|----------------------------------------|
|--------------------------|----------------------------------------|
|--------------------------|----------------------------------------|
|----------2---(2)---------|------------------2---(2)---------2-----|
|------2s4-----------2s4-0-|-(0)-----2s4------------------4-----4---|
|-(0)----------------------|----------------------------------------|


                          A7                A7sus4add6
   Q      E S S  E  Q     E   +Q        E   S S    E  E   E   E
|--0------x-0-0--0--0-----0-|-(0)-------x---0-0----0--0---x---0--|
|--0------x-0-0--0--0-----2-|-(2)-------x---3-3----3--3---x---0--|
|--1------x-1-1--1--1-----0-|-(0)-------x---0-0----0--0---x---1--|
|--2------x-2-2--2--2-----2-|-(2)-------x---4-4----4--4---x---2--|
|--2------x-2-2--2--2-----0-|-(0)-------x---0-0----0--0---x---2--|
|--0------x-0-0--0--0-------|---------------------------------0--|
|
| +H.                   Q      E  a Q     a E   a  Q    a Q
|---------------------------|------------------------------------|
|---------------------------|------------------------------------|
|-(2)r----------------------|------------------------------------|
|---------------------------|-----0h2-----0h2---0h=2----0h2------|
|---------------------------|------------------------------------|
|---------------------------|------------------------------------|
|
|                                                         |3|
|  Q    a E E   +Q    a E E   +Q      a E   E     +Q      E S E
|---------------------------|------------------------------------|
|---------------------------|------------------------------------|
|---------------------------|------------------------------------|
|-----------2---(2)---------|---------------2-----(2)-------2----|
|-------2s4-----------2s4-0-|-(0)-----2s4-----------------4---4--|
|--0------------------------|------------------------------------|


                         A7           A7sus4add6      E
  +Q     E S S  E  E   E E   +Q     E S S  E    E E   E
|-(0)----x-0-0--0--0---x-0-|-(0)----x-0-0--0----0-x---0-|
|-(0)----x-0-0--0--0---x-2-|-(2)----x-3-3--3----3-x---0-|
|-(1)----x-1-1--1--1---x-0-|-(0)----x-0-0--0----0-x---1-|
|-(2)----x-2-2--2--2---x-2-|-(2)----x-4-4--4----4-x---2-|
|-(2)----x-2-2--2--2---x-0-|-(0)----x-0-0--0----0-x---2-|
|-(0)----x-0-0--0--0---x---|--------------------------0-|
|
|  W                          Q   a E E    E    E Q
|--------------------------|----------3----5b7==5-5-----|
|--------------------------|------3s5-------------------|
|--------------------------|----------------------------|
|--------------------------|----------------------------|
|--------------------------|----------------------------|
|--------------------------|----------------------------|
|
|                                                 |3|
|  Q   a E E   +Q    a E E   +Q   a E E   +Q      E S E
|--------------------------|----------------------------|
|--------------------------|----------------------------|
|--------------------------|----------------------------|
|----------2---(2)---------|----------2---(2)-------2---|
|------2s4-----------2s4-0-|-(0)--2s4-------------4---4-|
|--0-----------------------|----------------------------|


                           A                     A7          A
  +Q     E  S  S  E  E   E S T T    E  E   E S S  S  S E E   E
|-(0)----x--0--0--0--0---0-0-0-0-|--0--0---0-0-0--3--3-3-3---0----||
|-(0)----x--0--0--0--0---0-2-2-2-|--2--2---2-2-2--2--2-2-2---2----||
|-(1)----x--1--1--1--1---1-2-2-2-|--2--2---2-2-2--2--2-2-2---2----||
|-(2)----x--2--2--2--2---2-2-2-2-|--2--2---2-2-2--2--2-2-2---2----||
|-(2)----x--2--2--2--2---2-0-0-0-|--0--0---0-0-0--0--0-0-0---0----||
|-(0)----x--0--0--0--0---0-------|--------------------------------||
|
| +Q.      +E    +Q      Q          H             H
|-(5)------(5)r==(5)-------------|---------------<7>--------------||
|--------------------------------|--------------------------------||
|--------------------------------|--------------------------------||
|--------------------------------|--------------------------------||
|--------------------------------|--------------------------------||
|--------------------------------|--------------------------------||
|
|                                                        |3|
|  Q   a E  E    +Q    a E E       +Q    a E E   +Q      E S E
|--------------------------------|--------------------------------||
|--------------------------------|--------------------------------||
|--------------------------------|--------------------------------||
|-----------2----(2)-------------|-----------2---(2)-------2------||
|------2s4-------------2s4-0-----|-(0)---2s4-------------4---4----||
|--0-----------------------------|--------------------------------||


 Out-Chorus
  E         Dsus2   A                  A7
  Q     Q    Q    E S S    S  S   E q  S    S E E E
|-0----------0----0-0-0-|--0--0---0-0--0----0-0-0-x-----|
|-0----------3----3-2-2-|--2--2---2-2--2----2-2-2-x-----|
|-1----------2----2-2-2-|--2--2---2-2--0----0-0-0-x-----|
|-2----------0----0-2-2-|--2--2---2-2--2----2-2-2-x-----|
|-2-----------------0-0-|--0--0---0-0--0----0-0-0-x-----|
|-0---------------------|-------------------------------|
|
| E S S Q    E  E Q        E    a E Q  E      E E S +S
|-------4----2--0-------|-------------------------------|
|---0h2-----------3-----|--2----0h2-2-------------------|
|-----------------------|--------------2b3====2-2-2r(2)-|
|-----------------------|-------------------------------|
|-----------------------|-------------------------------|
|-----------------------|-------------------------------|
|
| Q     E E +Q.     E     +E    a E Q  e      E Q
|-----------------------|-----------5---------2-0-------|
|-----------------------|--------------0----------------|
|-----------------------|-------4s6-----------2-0-------|
|---------0-(0)---------|-------------------------------|
|-------------------0---|-(0)---------------------------|
|-0---------------------|-------------------------------|


  E         Dsus2                  A            Asus4        A7
  Q     E E  Q          E    S S    E     E       S  S S  S   E     Q         E
|-0-----x-0--0----------0----0-0-|--------0-------------------------0-----------|
|-0-----x-0--3----------3----3-3-|--------2----------3-3------------2-----------|
|-1-----x-1--2----------2----2-2-|--------2-------2--2-2-(0)--------0-----------|
|-2-----x-2--0----------0----0-0-|--------2-------2--2-2------------2-----------|
|-2-----x-2----------------------|--0-------------0-----------0-----------------|
|-0-----x-0----------------------|--------------------------------------------0-|
|
| E S S Q    S  S S S   E    E     +E     E      +E    E      E     E     S S E
|-------4---------3-0--------7---|-(7)------------------------------------------|
|---0h2------3s=5-----/10b12-----|-------10pb12r(10)---8-----10b11-10b11-10p8---|
|--------------------------------|--------------------------------------------9-|
|--------------------------------|----------------------------------------------|
|--------------------------------|----------------------------------------------|
|--------------------------------|----------------------------------------------|
|
| Q     E E +Q.              E     +E  a  E       Q           e     E     Q
|--------------------------------|----------------5-----------------2-----0-----|
|--------------------------------|----------------------------0-----------------|
|--------------------------------|-----4s=6-------------------------2-----0-----|
|---------0-(0)------------------|----------------------------------------------|
|----------------------------0---|-(0)------------------------------------------|
|-0------------------------------|----------------------------------------------|


  E                                     A
   H.                               +E  E
|--0--------------------------------(0)-0-|
|--0--------------------------------(0)-2-|
|--1--------------------------------(1)-2-|
|--2--------------------------------(2)-2-|
|--2--------------------------------(2)-0-|
|--0--------------------------------(0)---|
|
|  E     +E   E      +E   E   E     +E  E
|-10b11-(10)-10pb12r(10)--7-------------7-|
|----------------------------10b12-(10)---|
|-----------------------------------------|
|-----------------------------------------|
|-----------------------------------------|
|-----------------------------------------|
|
|  Q          E       E  +Q.            E
|-----------------------------------------|
|-----------------------------------------|
|-----------------------------------------|
|---------------------0--(0)--------------|
|---------------------------------------0-|
|--0--------------------------------------|


                                               E                                         A
   H.                                +E        E   +H.                             +E    E
|--0---------------------------------(0)-------0-|-(0)-----------------------------(0)---0-|
|--2---------------------------------(2)-------0-|-(0)-----------------------------(0)---2-|
|--2---------------------------------(2)-------1-|-(1)-----------------------------(1)---2-|
|--2---------------------------------(2)-------2-|-(2)-----------------------------(2)---2-|
|--0---------------------------------(0)-------2-|-(2)-----------------------------(2)---0-|
|----------------------------------------------0-|-(0)-----------------------------(0)-----|
|
|  S      +S    E  e  e  E     E      T  +T  S E    E    E  S      +S  E  E   E     S  S E
|------------------------------------------------|-------7---------------------------------|
|-10pb12r(10)---8-10-10-10b12-10b12==10r(10)p8---|-10b11---10pb11r(10)p8-10--10b12-10--8---|
|----------------------------------------------9-|---------------------------------------9-|
|------------------------------------------------|-----------------------------------------|
|------------------------------------------------|-----------------------------------------|
|------------------------------------------------|-----------------------------------------|
|
| +E          a E  Q     e     E      Q             Q       E          E +Q.             E
|------------------5-----------2------0----------|-----------------------------------------|
|------------------------0-----------------------|-----------------------------------------|
|-------------4s6--------------2------0----------|-----------------------------------------|
|------------------------------------------------|---------------------0-(0)---------------|
|-(0)--------------------------------------------|---------------------------------------0-|
|------------------------------------------------|--0--------------------------------------|


   H.                                +E       E
|--0---------------------------------(0)---------|
|--2---------------------------------(2)---------|
|--2---------------------------------(2)---------|
|--2---------------------------------(2)---------|
|--0---------------------------------(0)---------|
|------------------------------------------------|
|
|  E      E  S      +S  E  E     +E   E      +E
|---------7-------------7-10b12-(10)-10pb12r(10)-|
|-10b11-----10pb12r(10)--------------------------|
|------------------------------------------------|
|------------------------------------------------|
|------------------------------------------------|
|------------------------------------------------|
|
| +E    a E  Q             e      E   Q
|------------5--------------------2---0----------|
|--------------------------0---------------------|
|-------4s6-----------------------2---0----------|
|------------------------------------------------|
|-(0)--------------------------------------------|
|------------------------------------------------|


  E           Dsus2                    A           Asus4       A7
  Q      E  E  Q           E     S S    E     E  S  S  S  S      E   Q           E
|-0------x--0--0-----------0-----0-0-|--------0----------------------0-------------*|
|-0------x--0--3-----------3-----3-3-|--------2-----3--3-------------2-------------*|
|-1------x--1--2-----------2-----2-2-|--------2--2--2--2-(0)---------0-------------*|
|-2------x--2--0-----------0-----0-0-|--------2--2--2--2-------------2-------------*|
|-2------x--2------------------------|--0--------0---------------0-----------------*|
|-0------x--0------------------------|-------------------------------------------0-*|
|
| E  E   e  e  e     E     S  S  E      E     E  S  S  S  S     +E   E     S  S  E
|---(0)-15-17-17b19-17b19-17-15------|-15-------------15-17b18-(17)-17b19-17-15----*|
|-------------------------------17---|-------17-15h17---------------------------17-*|
|------------------------------------|---------------------------------------------*|
|------------------------------------|---------------------------------------------*|
|------------------------------------|---------------------------------------------*|
|------------------------------------|---------------------------------------------*|
|
| Q      E  E +Q.                E     +E  a  E  Q               e   E     Q
|------------------------------------|-----------5-------------------2-----0-------*|
|------------------------------------|---------------------------0-----------------*|
|------------------------------------|-----4s=6----------------------2-----0-------*|
|-----------0-(0)--------------------|---------------------------------------------*|
|--------------------------------0---|-(0)-----------------------------------------*|
|-0----------------------------------|---------------------------------------------*|


Duration Legend
---------------
W - whole; H - half; Q - quarter; E - 8th; S - 16th; T - 32nd; X - 64th; a - acciaccatura
+ - note tied to previous; . - note dotted; .. - note double dotted
Uncapitalized letters represent notes that are staccato (1/2 duration)
Irregular groupings are notated above the duration line
Duration letters will always appear directly above the note/fret number it represents the
duration for.  Duration letters with no fret number below them represent rests.  Multi-
bar rests are notated in the form Wxn, where n is the number of bars to rest for.  Low
melody durations appear below the staff

Tablature Legend
----------------
 h   - hammer-on
 p   - pull-off
 b   - bend
 pb  - pre-bend
 r   - bend release (if no number after the r, then release immediately)
 /\  - slide into or out of (from/to "nowhere")
 s   - legato slide
 S   - shift slide
  - natural harmonic
[n]  - artificial harmonic
n(n) - tapped harmonic
 ~   - vibrato
 tr  - trill
 T   - tap
 TP  - trem. picking
 PM  - palm muting
\n/  - tremolo bar dip; n = amount to dip
 \n  - tremolo bar down
 n/  - tremolo bar up
/n\  - tremolo bar inverted dip
 =   - hold bend; also acts as connecting device for hammers/pulls
 <>  - volume swell (louder/softer)
 x   - on rhythm slash represents muted slash
 o   - on rhythm slash represents single note slash

Misc Legend
-----------
 |  - bar
||  - double bar
||o - repeat start
o|| - repeat end
*|  - double bar (ending)
 :  - bar (freetime)
 $  - Segno
 &  - Coda
Tempo markers -  = BPM(8/16=s8/s16), where s8 = swing 8ths, s16 = swing 16ths
Suggest correction
Creating personal tab
Creating personal tab
You can edit any tab online and save it as your Personal.

You can edit, replace or remove any tab part or add personal notes – all changes will be seen only by you.

Personal tabs can be accessed anytime from any device, even offline.
Learn more »
Give kudos to tab author, rate the tab!
1 2 3 4 5
comments
print report bad tab
guest
You may want to rate the tab now too:
select rating
Wanna post a correction for this tab? Suggest correction