Oops, an error
Loading. Please wait.

Mr Soul Tab

version 1
version 1

Whole song

Interactive

19,933 views 36 this week
no commentswrite comment
1 2 3 4 5
x 3
add to favorites
launch autoscroll
font size
0
reset
how to read this tab
guitar tuner
×
Best way to learn
"Mr Soul"
Autoscroll
slow
fast
+/-
esc
set tempo
stop
(The main riff on the E is as follows)
   q   q   e e e q  e q  e e e e
e|--------------------------------------------------------|
B|--------------------------------------------------------|
G|--------------------------------------------------------|
D|-2---2---2-2-4-5--4-5--4-5-4-5--------------------------|
A|-2---2---2-2-4-5--4-5--4-5-4-5--------------------------|
E|-0---0---0-0-0-0--0-0--0-0-0-0--------------------------|

(When it switches to A play
e|----------------------------------------|
B|----------------------------------------|
G|-2---2---2-2-4-5--4-5--4-5-4-5----------|
D|-2---2---2-2-4-5--4-5--4-5-4-5----------|
A|-0---0---0-0-0-0--0-0--0-0-0-0----------|
E|----------------------------------------|

each of these riffs is two measures long(4/4 time sig.) and the
eighth(e) and quarter(q) notes indicate the approximate rhythm.

(The main riff on the E is as follows)
   q   q   e e e q  e q  e e e e
e|--------------------------------------------------------|
B|--------------------------------------------------------|
G|--------------------------------------------------------|
D|-2---2---2-2-4-5--4-5--4-5-4-5--------------------------|
A|-2---2---2-2-4-5--4-5--4-5-4-5--------------------------|
E|-0---0---0-0-0-0--0-0--0-0-0-0--------------------------|

E
Oh, hello Mr. Soul I dropped by to pick up a reason

for the thought that I caught in my head is the event of the season

       A                                              E
Why in crowds just the trace of my face could seem so pleasin'

         D          Dsus4 D       A           Asus4 A     E(no riff)
I'll cop out to the change, but a stranger is putting the tease on

(The main riff on the E is as follows)
   q   q   e e e q  e q  e e e e
e|--------------------------------------------------------|
B|--------------------------------------------------------|
G|--------------------------------------------------------|
D|-2---2---2-2-4-5--4-5--4-5-4-5--------------------------|
A|-2---2---2-2-4-5--4-5--4-5-4-5--------------------------|
E|-0---0---0-0-0-0--0-0--0-0-0-0--------------------------|

I was down on a frown when a messenger brought me a letter
I was raised by the praise of a fan who said I upset her
Any girl in the world could have easily known me better
She said "You're strange, but don't change;" and I let her
Suggest correction
Give kudos to tab author, rate the tab!
1 2 3 4 5
comments
print report bad tab
guest
You may want to rate the tab now too:
select rating
Wanna post a correction for this tab? Suggest correction