Oops, an error
Loading. Please wait.

Gravity Chords

7 views 1 this week
no commentswrite comment
1 2 3 4 5
3 more votes to show rating
add to favorites
launch autoscroll
font size
0
reset
transpose
0
reset
simplify chords
display chords
guitar tuner
Autoscroll
slow
fast
+/-
esc
set tempo
stop
Help us to improve Ultimate-Guitar.com Take our survey!
×
Author
Difficulty
Tuning
novice
E A D G B E
Buffalo Tom - Gravity


Chords

 Cmaj7  Em/C#  G   C  Em
e|--0----0-----3---0---0----|
B|--0----5-----3---1---0----|
G|--0----0-----0---0---0----|
D|--2----2-----0---2---2----|
A|--3----4-----2---3---2----|
E|-------0-----3-------0----|


[Intro]

e|-----------------------------------------3---------|
B|-----0-----------5-----------5-------------3-------|
G|--0----0---0--0----0---0--0----0---0---------------|  
D|--2------2----2------2----2------2----0------------|  
A|--3-----------4-----------3-----------2------------|
E|--------------------------------------3------------|

e|------------------------------------3------------|
B|-----0-----------5-----------5------3------------|
G|--0----0---0--0----0---0--0----0----0------------|  
D|--2------2----2------2----2---------0------------|  
A|--3-----------4-----------3---------2------------|
E|------------------------------------3------------|

[Verse]
        C     G         C     G
he's a little boy and a burly man
         Em             G
shooting fingers on his hand
           C     G    C      G
there's an angry fire in his eyes
      Em            G
but a quiver in his side

[Chorus]
       C     Em/C#    C     G
if you understood the gravity
       C     Em/C#     C      G
as it pushes weight on top of me


C G   Em   G
C G  C G   Em   G


[Verse]
      C     G        C      G
as he loses hair and gets around
         Em                  G
and his friends all let him down
         C      G          C        G
when the long long nights start to drag
             Em             G
he feels his being start to sag

[Chorus]
       C     Em/C#    C     G
if you understood the gravity
       C       Em/C#     C      G
as it pulls it all right out of me


C G   Em   G
C G  C G   Em   G


[Chorus]
          C    Em/C#     C            G 
if you've ever seen the nights i have cried
           C     Em/C#    C       G
then you'd understand the reasons why
       C     Em/C#    C     G
if you understood the gravity
       C     Em/C#         C      G
as it pushes right down on top of me

G   C
and you will see the gravity
G   C
and you will see the man in me
G   C 
and you will see just what I see


João Vitor
joaovitor_resendealvarenga@yahoo.com.br
Suggest correction
Give kudos to tab author, rate the tab!
1 2 3 4 5
comments
print report bad tab
guest
You may want to rate the tab now too:
select rating
Wanna post a correction for this tab? Suggest correction