Oops, an error
Loading. Please wait.

Eagle Man-Changing Woman chords

version 2
version 2

Whole song

  • Buffy Sainte-Marie did 2 different versions of thi... Show more
37 views 1 this week
no commentswrite comment
1 2 3 4 5
2 more votes to show rating
add to favorites
×
Save as Personal and add changes to this tab that will be seen only by you. Learn more ›
×
You can save this tab as Personal to edit and correct it or add notes. All changes will be seen only by you. Learn more »
launch autoscroll
font size
0
reset
transpose
0
reset
simplify chords
display chords
guitar tuner
edit
Autoscroll
slow
fast
+/-
esc
set tempo
stop
Strumming
There is no strumming pattern for this song yet. and get +5 IQ
--------------------------------------------------------------------------
                                     Artist - Buffy Sainte-Marie
                                    *****************************
                                  Song - Eagle Man (Changing Woman)  
                                 ***********************************
                                    Album - Changing Woman (1975) 
                                   *******************************
                                        Tabbed By - Ayreon77
                                       **********************
--------------------------------------------------------------------------
Tuning = Standard


--------------
CAPO 1st FRET
--------------

INTRO
******
Am


PICKING PATTERN THROUGH OUT THE SONG.
**************************************
  Am                Am/G             Am/F              Am/E
e|---------0-------|--------0-------|---------0-----------------0--------|
B|---1-------1---2-|-1--------1---2-|---1-------1---2----1--------1---2--|
G|-----2-------2---|---2--------2---|-----2-------2--------2--------2----|
D|-------2---------|-----2----------|-------2----------------2-----------|
A|-0---------------|----------------|------------------------------------|
E|-----------------|-3--------------|-1----------------0-----------------|

  Dm                                 E
e|---1-----1----------1-----1-------|---0-----0------------------------|
B|-----3-----3---3------3-----3---3-|-----0-----0---0----0-----0-------|
G|-------2-----2----------2-----2---|-------1-----1--------1-----1---1-|
D|-0----------------1---------------|------------------------2-----2---|
A|----------------------------------|----------------------------------|
E|----------------------------------|-0----------------0---------------|

  F                                  Bb
e|----------------------------------|----------------------------------|
B|---1-----1----------1-----1-------|---3-----3----------3-----3-------|
G|-----2-----2---2------2-----2---2-|-----3-----3---3------3-----3---3-|
D|-------2-----2----------2-----2---|-------3-----3----------3-----3---|
A|----------------------------------|-1----------------1---------------|
E|-1----------------1---------------|----------------------------------|

  F                 Bb                A
e|-----------------|-----------------|----------------------------------|
B|---1-----1-------|---3-----3-------|---2-----2----------2-----2-------|
G|-----2-----2---2-|-----3-----3---3-|-----2-----2---2------2-----2---2-|
D|-------2-----2---|-------3-----3---|-------2-----2----------2-----2---|
A|-----------------|-1---------------|-0----------------0---------------|
E|-1---------------|-----------------|----------------------------------|



----------------------------
VERSE 1
********
Am        Am/C             Am/F   Am/E
Eagle man,    climbing the skies.
             Dm                 E
Red light of evening falls like rain.
             F                  Bb
Rainbow's my yarn the sky is my loom
       F            Bb       A
I will weave sunsets   later on.


----------------------------
VERSE 2
********
Am        Am/C             Am/F   Am/E
Snow woman,   climbing the wind.
              Dm                  E
Blue light of winter fills her baskets.
F                            Bb
Changing woman, dance on the weather 
               F       Bb          A
lightening and feather    mark her trail


----------------------------
VERSE 3
********
Am         Am/C              Am/F   Am/E
Life lovers,   splitting the worlds.
            Dm             E
Healing the broken and the lame.
             F                Bb
Reach out to me, give me your hand
       F             Bb   A
We close the circuits  of time


----------------------------
VERSE 4
********
Am          Am/C             Am/F   Am/E
Angel ranger,   stay here by me.
              Dm         E
Guide my transmission of energy.
         F                 Bb
Oldest religion simple and clear.
           F   Bb          A
Pour out a lesson into our dreams


----------------------------
VERSE 5
********
Am        Am/C             Am/F   Am/E
Eagle man,    climbing the skies.
             Dm                 E
Red light of evening falls like rain.
             F                  Bb
Rainbow's my yarn the sky is my loom
             F      Bb       A
I will weave sunsets   later on.


ENJOY..........
Suggest correction
Creating personal tab
Creating personal tab
You can edit any tab online and save it as your Personal.

You can edit, replace or remove any tab part or add personal notes – all changes will be seen only by you.

Personal tabs can be accessed anytime from any device, even offline.
Learn more »
Give kudos to tab author, rate the tab!
1 2 3 4 5
comments
print report bad tab
guest
You may want to rate the tab now too:
select rating
Wanna post a correction for this tab? Suggest correction