Oops, an error
Loading. Please wait.

Elstree Bass Tab

58 views 1 this week
no commentswrite comment
1 2 3 4 5
3 more votes to show rating
add to favorites
launch autoscroll
font size
0
reset
guitar tuner
Autoscroll
slow
fast
+/-
esc
set tempo
stop
Help us to improve Ultimate-Guitar.com Take our survey!
×
Author
Difficulty
novice
Bass Start - 00:14


[Intro]

G|------------|------------|------------|---------------|
D|------------|------------|------------|---------------|
A|------------|--3-3--3-3--|------------|--4-4--3-3--1--|
E|--4-4--4-4--|------------|--2-2--2-2--|---------------|


[Verse 1]

G|------------|------------|------------|---------------|
D|------------|------------|------------|---------------|
A|------------|--3-3--3-3--|------------|--4-4--3-3--1--|
E|--4-4--4-4--|------------|--2-2--2-2--|---------------|


G|------------|------------|------------|---------------|
D|------------|------------|------------|---------------|
A|------------|--3-3--3-3--|------------|--4-4--3-3--1--|
E|--4-4--4-4--|------------|--2-2--2-2--|---------------|


G|------------|------------|------------|--------------------|
D|------------|------------|------------|--------------------|
A|------------|--3-3--3-3--|------------|--------------------|
E|--4-4--4-4--|------------|--2-2--2-2--|--1----2----4----4--|


[Chorus]

G|------------------|-------------------|------------------|-------------------|
D|--8-8-8-8-8-8-8\--|--4-4---4-4-3-4-5--|--6-6---6-6-6-4\--|--3-3---3-3-3---3--|
A|------------------|-------------------|------------------|-------------------|
E|------------------|------2------------|------4-----------|------1-------1----|


G|-------------------|-----------------|-----------------|---------3/10------|
D|--4-4---4-4-4-4-3--|--1-1-1-1-1-1-1--|--2-2-2-2-2-2-2--|-------------------|
A|-------------------|-----------------|-----------------|--8\-----------8\--|
E|------2------------|-----------------|-----------------|------1------------|


G|------------------|-------------------|------------------|-------------------|
D|--8-8---8-8-8-8\--|--4-4---4-4-3-4-5--|--6-6---6-6-6-4\--|--3-3---3-3-3---3--|
A|------------------|-------------------|------------------|-------------------|
E|------6-----------|------2------------|------4-----------|------1-------1----|


G|-------------------|-----------------|-------------------|--------------|
D|--4-4---4-4-4-4-3--|--1-1-1-1-1-1-1--|--2-2-2-2-2-2-2-2--|--3--1--------|
A|-------------------|-----------------|-------------------|--------4--3--|
E|------2------------|-----------------|-------------------|--------------|


[Verse 2]

G|------------|------------|------------|---------------|
D|------------|------------|------------|---------------|
A|------------|--3-3--3-3--|------------|--4-4--3-3--1--|
E|--4-4--4-4--|------------|--2-2--2-2--|---------------|


G|------------|------------|------------|--------------------|
D|------------|------------|------------|--------------------|
A|------------|--3-3--3-3--|------------|--------------------|
E|--4-4--4-4--|------------|--2-2--2-2--|--1----2----4----4--|


[Chorus]

G|------------------|-------------------|------------------|-------------------|
D|--8-8---8-8-8-8\--|--4-4---4-4-3-4-5--|--6-6---6-6-6-4\--|--3-3---3-3-3---3--|
A|------------------|-------------------|------------------|-------------------|
E|------6-----------|------2------------|------4-----------|------1-------1----|


G|-------------------|-----------------|-----------------|---------3/10------|
D|--4-4---4-4-4-4-3--|--1-1-1-1-1-1-1--|--2-2-2-2-2-2-2--|-------------------|
A|-------------------|-----------------|-----------------|--8\-----------8\--|
E|------2------------|-----------------|-----------------|------1------------|


G|------------------|-------------------|------------------|-------------------|
D|--8-8---8-8-8-8\--|--4-4---4-4-3-4-5--|--6-6---6-6-6-4\--|--3-3---3-3-3---3--|
A|------------------|-------------------|------------------|-------------------|
E|------6-----------|------2------------|------4-----------|------1-------1----|


G|-------------------|-----------------|-------------------|-------------------|
D|--4-4---4-4-4-4-3--|--1-1-1-1-1-1-1--|--2-2-2-2-2-2-2-2--|--3-3-3-3-3-3-3-3--|
A|-------------------|-----------------|-------------------|-------------------|
E|------2------------|-----------------|-------------------|-------------------|


G|-------------------|--------------|
D|--2-2-2-2-2-2-2-2--|--3--1--------|
A|-------------------|--------4--3--|
E|-------------------|--------------|


[Instrumental]

G|----------------|----------------|----------------|----------------|----------------|----------------|
D|----------------|----------------|----------------|----------------|----------------|----------------|
A|--1-------------|--------r-------|--------r-------|--------r-------|--------r-------|--------r-------|
E|----------------|----------------|----------------|----------------|----------------|----------------|


G|------------------|-------------------|-------------------|-------------------|
D|--8-8---8-8-8-8\--|--4-4---4-4-3-4-5--|--6-6---6-6-6-6-4--|--3-3---3-3-3---3--|
A|------------------|-------------------|-------------------|-------------------|
E|------6-----------|------2------------|------4------------|------1-------1----|


G|-------------------|-----------------|-------------------|--------------|
D|--4-4---4-4-4-4-3--|--1-1-1-1-1-1-1--|--2-2-2-2-2-2-2-2--|--3--1--------|
A|-------------------|-----------------|-------------------|--------4--3--|
E|------2------------|-----------------|-------------------|--------------|


[Verse 3]

G|------------|------------|------------|---------------|
D|------------|------------|------------|---------------|
A|------------|--3-3--3-3--|------------|--4-4--3-3--1--|
E|--4-4--4-4--|------------|--2-2--2-2--|---------------|


G|------------|------------|------------|--------------------|
D|------------|------------|------------|--------------------|
A|------------|--3-3--3-3--|------------|--------------------|
E|--4-4--4-4--|------------|--2-2--2-2--|--1----2----4----4--|


[Chorus]

G|----------------|----------------|----------------|----------------|
D|----------------|----------------|----------------|----------------|
A|--------r-------|--------r-------|--------r-------|--------r-------|
E|----------------|----------------|----------------|----------------|


G|----------------|----------------|-------------------|--------------|
D|----------------|----------------|--2-2-2-2-2-2-2-2--|--3--1--------|
A|--------r-------|--------r-------|-------------------|--------4--3--|
E|----------------|----------------|-------------------|--------------|


G|------------------|-------------------|------------------|-------------------|
D|--8-8---8-8-8-8\--|--4-4---4-4-3-4-5--|--6-6---6-6-6-4\--|--3-3---3-3-3---3--|
A|------------------|-------------------|------------------|-------------------|
E|------6-----------|------2------------|------4-----------|------1-------1----|


G|-------------------|-------------------|
D|--4-4---4-4-4---4--|--6-6---6-6-6---6--|
A|-------------------|-------------------|
E|------2-------2----|------4-------4----|


G|------------------|-------------------|------------------|-------------------|
D|--8-8---8-8-8-8\--|--4-4---4-4-3-4-5--|--6-6---6-6-6-4\--|--3-3---3-3-3---3--|
A|------------------|-------------------|------------------|-------------------|
E|------6-----------|------2------------|------4-----------|------1-------1----|


G|-------------------|-------------------|
D|--4-4---4-4-4---4--|--6-6---6-6-6---6--|
A|-------------------|-------------------|
E|------2-------2----|------4-------4----|


G|------------------|-------------------|------------------|-------------------|
D|--8-8-6-8-----8\--|--4-4---4-4-3-4-5--|--6-6-6-6-6-6-6\--|--3-3---3-3-3---3--|
A|------------------|-------------------|------------------|-------------------|
E|----------6-6-----|------2------------|------------------|------1-------1----|


G|-------------------|-----------------|
D|--4-4---4-4-4-3-4--|--6-6-6-6-6-6-6--|
A|-------------------|-----------------|
E|------2------------|-----------------|


G|------------------|-------------------|------------------|-------------------|
D|--8-8---8-8-8-8\--|--4-4---4-4-3-4-5--|--6-6-6-6-6-6-4\--|--3-3---3-3-3---3--|
A|------------------|-------------------|------------------|-------------------|
E|------6-----------|------2------------|------------------|------1-------1----|


G|-------------------|-----------------|
D|--4-4---4-4-4---4--|--6-6-6-6-6-6-6--|
A|-------------------|-----------------|
E|------2-------2----|-----------------|


[Outro]

G|------------------|-------------------|------------------|-------------------|
D|--8-8-8-8-8-8-8\--|--4-4---4-4-4---4--|--6-6-6-6-6-6-4\--|--3-3---3-3-3---3--|
A|------------------|-------------------|------------------|-------------------|
E|------------------|------2-------2----|------------------|------1-------1----|


G|-------------------|-------------------|-----|
D|--4-4---4-4-4---4--|--6-6-6-6-6-6-6-6--|--8--|
A|-------------------|-------------------|-----|
E|------2-------2----|-------------------|-----|



***************************

| / : slide up
| \ : slide down
| r : rest

***************************

in regular sequence!
Suggest correction
Give kudos to tab author, rate the tab!
1 2 3 4 5
comments
print report bad tab
guest
You may want to rate the tab now too:
select rating
Wanna post a correction for this tab? Suggest correction