Oops, an error
Loading. Please wait.

Living In The Plastic Age Bass Tab

34 views 1 this week
no commentswrite comment
1 2 3 4 5
3 more votes to show rating
add to favorites
launch autoscroll
font size
0
reset
guitar tuner
Autoscroll
slow
fast
+/-
esc
set tempo
stop
Help us to improve Ultimate-Guitar.com Take our survey!
×
Author
Difficulty
novice
Bass Start - 00:41


[Intro]

G|------------|------------|----------------|----------------|-----7-----5-----7-----5--|
D|--7-7--7-7--|--7-7--7-7--|--10-10--10-10--|--10-10--10-10--|--------------------------|
A|------------|------------|----------------|----------------|--5-----5-----5-----5-----|
E|------------|------------|----------------|----------------|--------------------------|


[Verse 1]

G|-------------------|-------------------|-------------------|-------------------|
D|-------------------|-------------------|-------------------|-------------------|
A|-------------------|--------------2-2--|--3-3-3-3-3-3-3-3--|--3-3-3-3-2-2------|
E|--5-5-5-5-5-5-5-5--|--5-5-5-5-5-5------|-------------------|--------------3-3--|


G|-------------------|-------------------|-------------------|-------------------|
D|-------------------|-------------------|-------------------|-------------------|
A|-------------------|--------------2-2--|--3-3-3-3-3-3-3-3--|--3-3-3-3-3-3-3-3--|
E|--5-5-5-5-5-5-5-5--|--5-5-5-5-5-5------|-------------------|-------------------|


G|------7-------5----|------7-------5----|------------|----------------|
D|-------------------|-------------------|------------|----------------|
A|--5-5---5-5-5---5--|--5-5---5-5-5---5--|------------|------------9\--|
E|-------------------|-------------------|--5-5--5-5--|--5-5--5-5------|


[Verse 2]

G|-------------------|-------------------|-----------------------|---------------------|
D|----7---7---7---7--|----7---7---7---9--|----10---10---10---10--|----10---10---9---5--|
A|-------------------|-------------------|-----------------------|---------------------|
E|--5---5---5---5----|--5---5---5---7----|--8----8----8----8-----|--8----8----7---3----|


G|-------------------|-------------------|------5-------5----|------5-------5----|
D|----7---7---7---7--|----7---7---7---5--|--3-3---3-3-3---3--|--2-2---2-2-2---2--|
A|-------------------|-------------------|-------------------|-------------------|
E|--5---5---5---5----|--5---5---5---3----|-------------------|-------------------|


G|-------------------|-------------------|
D|--0-0-0-0-2-2-2-2--|--3-3-3-3-5-5-5-5--|
A|-------------------|-------------------|
E|-------------------|-------------------|


[Chorus]

G|-------------------|-------------------|-------------------|-------------------|
D|-------------------|-------------------|-------------------|-------------------|
A|-------------------|-------------------|-------------------|-------------------|
E|--5-5-5-5-5-5-5-5--|--5-5-5-5-5-5-5-5--|--5-5-5-5-5-5-5-5--|--5-5-5-5-5-5-5-5--|


G|-------------------|-------------------|-------------------|-----------------|
D|-------------------|-------------------|-------------------|-----------------|
A|-------------------|-------------------|-------------------|-----------------|
E|--5-5-5-5-5-5-5-5--|--5-5-5-5-5-5-5-5--|--5-5-5-5-5-5-5-5--|--5-5-5-5-5-5-5--|


G|----7---9---10----|----7---9---10----|-------------------|-------------------|
D|------------------|------------------|-------------------|----------5-5-5-5--|
A|--5---7---8----7--|--5---7---8----7--|--5-5-5-5-7-7-7-7--|--8-8-8-8----------|
E|------------------|------------------|-------------------|-------------------|


[Verse 3]

G|-------------------|-------------------|-----------------------|---------------------|
D|----7---7---7---7--|----7---7---7---9--|----10---10---10---10--|----10---10---9---5--|
A|-------------------|-------------------|-----------------------|---------------------|
E|--5---5---5---5----|--5---5---5---7----|--8----8----8----8-----|--8----8----7---3----|


G|-------------------|-------------------|-----------------------|-----------------------|
D|----7---7---7---7--|----7---7---7---9--|----10---10---10---10--|----10---10---10---10--|
A|-------------------|-------------------|-----------------------|-----------------------|
E|--5---5---5---5----|--5---5---5---7----|--8----8----8----8-----|--8----8----8----8-----|


G|------7-------5----|------7-------5----|
D|-------------------|-------------------|
A|--5-5---5-5-5---5--|--5-5---5-5-5---5--|
E|-------------------|-------------------|


[Verse 4]

G|-------------------|-------------------|-----------------------|---------------------|
D|----7---7---7---7--|----7---7---7---9--|----10---10---10---10--|----10---10---9---5--|
A|-------------------|-------------------|-----------------------|---------------------|
E|--5---5---5---5----|--5---5---5---7----|--8----8----8----8-----|--8----8----7---3----|


G|-------------------|-------------------|------5-------5----|------5-------5----|
D|----7---7---7---7--|----7---7---7---5--|--3-3---3-3-3---3--|--2-2---2-2-2---2--|
A|-------------------|-------------------|-------------------|-------------------|
E|--5---5---5---5----|--5---5---5---3----|-------------------|-------------------|


G|------5-------5----|------5-------5----|------7------9--|------10--------12\--|
D|--3-3---3-3-3---3--|--2-2---2-2-2---2--|----------------|---------------------|
A|-------------------|-------------------|--5-5----7-7----|--8-8-----10-10------|
E|-------------------|-------------------|----------------|---------------------|


[Chorus]

G|-------------------|-------------------|-------------------|-------------------|
D|-------------------|-------------------|-------------------|-------------------|
A|-------------------|-------------------|-------------------|-------------------|
E|--5-5-5-5-5-5-5-5--|--5-5-5-5-5-5-5-5--|--5-5-5-5-5-5-5-5--|--5-5-5-5-5-5-5-5--|


G|-------------------|-------------------|-------------------|-----------------|
D|-------------------|-------------------|-------------------|-----------------|
A|-------------------|-------------------|-------------------|-----------------|
E|--5-5-5-5-5-5-5-5--|--5-5-5-5-5-5-5-5--|--5-5-5-5-5-5-5-5--|--5-5-5-5-5-5-5--|


G|----7---9---10----|----7---9---10----|-------------------|-------------------|
D|------------------|------------------|-------------------|----------5-5-5-5--|
A|--5---7---8----7--|--5---7---8----7--|--5-5-5-5-7-7-7-7--|--8-8-8-8----------|
E|------------------|------------------|-------------------|-------------------|


[Verse 5]

G|--------------|---------------|--------------|--4-----------|
D|--7-----7--9--|--10--9--7-----|--5-----5--7--|-----7--5-----|
A|-----7--------|------------7--|-----5--------|-----------5--|
E|--------------|---------------|--------------|--------------|


G|--------------|--------------|-------------------|-------------------|
D|--4-----4--5--|--7--5--4-----|-------------------|------0-0-2-2-3-3--|
A|-----5--------|-----------5--|----------0-0-2-2--|--3-3--------------|
E|--------------|--------------|--1-1-3-3----------|-------------------|


G|--------------|---------------|--------------|--4-----------|
D|--7-----7--9--|--10--9--7-----|--5-----5--7--|-----7--5-----|
A|-----7--------|------------7--|-----5--------|-----------5--|
E|--------------|---------------|--------------|--------------|


G|--------------|--------------|------5-------5----|------5-------5----|
D|--4-----4--5--|--7--5--4-----|--3-3---3-3-3---3--|--2-2---2-2-2---2--|
A|-----5--------|-----------5--|-------------------|-------------------|
E|--------------|--------------|-------------------|-------------------|


G|------5-------5----|------5-------5----|------7------9--|------10--------12\--|
D|--3-3---3-3-3---3--|--2-2---2-2-2---2--|----------------|---------------------|
A|-------------------|-------------------|--5-5----7-7----|--8-8-----10-10------|
E|-------------------|-------------------|----------------|---------------------|


[Chorus]

G|-------------------|-------------------|-------------------|-------------------|
D|-------------------|-------------------|-------------------|-------------------|
A|-------------------|-------------------|-------------------|-------------------|
E|--5-5-5-5-5-5-5-5--|--5-5-5-5-5-5-5-5--|--5-5-5-5-5-5-5-5--|--5-5-5-5-5-5-5-5--|


G|-------------------|-------------------|-------------------|-----------------|
D|-------------------|-------------------|-------------------|-----------------|
A|-------------------|-------------------|-------------------|-----------------|
E|--5-5-5-5-5-5-5-5--|--5-5-5-5-5-5-5-5--|--5-5-5-5-5-5-5-5--|--5-5-5-5-5-5-5--|


G|----7---9---10----|----7---9---10----|-------------------|-------------------|
D|------------------|------------------|-------------------|----------5-5-5-5--|
A|--5---7---8----7--|--5---7---8----7--|--5-5-5-5-7-7-7-7--|--8-8-8-8----------|
E|------------------|------------------|-------------------|-------------------|


[Instrumental]

G|----------------|----------------|----------------|----------------|
D|----------------|----------------|----------------|----------------|
A|----------------|--------r-------|--------r-------|--------r-------|
E|--5-------------|----------------|----------------|----------------|


G|----------------|----------------|----------------|----------------|
D|----------------|----------------|----------------|----------------|
A|--------r-------|--------r-------|--------r-------|--------r-------|
E|----------------|----------------|----------------|----------------|


[Verse 6]

G|---------------|-------------------|----------------|--------------------|
D|--7-7-5-7------|---7--7-5-7---7-7--|--5-5-3h5-------|---5--5-3h5----5-5--|
A|---------------|-------------------|----------------|--------------------|
E|----------5-5--|------------5------|----------33-3--|------------33------|


G|----------------|--------------------|-------------------|-------------------|
D|--4-4-2h4-------|---4--4-2h4----4-4--|-------------------|------0-0-2-2-3-3--|
A|----------------|--------------------|----------0-0-2-2--|--3-3--------------|
E|----------22-2--|------------22------|--1-1-3-3----------|-------------------|


G|----------------|--------------------|----------------|--------------------|
D|--7-7-5h7-------|---7--7-5h7----7-7--|--5-5-3h5-------|---5--5-3h5----5-5--|
A|----------------|--------------------|----------------|--------------------|
E|----------55-5--|------------55------|----------33-3--|------------33------|


G|----------------|--------------------|
D|--4-4-2h4-------|---4--4-2h4----4-4--|
A|----------------|--------------------|
E|----------22-2--|------------22------|


[Outro]

G|-------------------|-------------------|-------------------|-------------------|-----|
D|--3-------3--------|--3-------3--------|--3-------3--------|--3-------3--------|-----|
A|-------------------|-------------------|-------------------|-------------------|-----|
E|----1-1-1---1-1-1--|----1-1-1---1-1-1--|----1-1-1---1-1-1--|----1-1-1---1-1-1--|--5--|



**************************

| / : slide up
| \ : slide down
| h : hammer-on
| r : rest

**************************

in regular sequence!
Suggest correction
Give kudos to tab author, rate the tab!
1 2 3 4 5
comments
print report bad tab
guest
You may want to rate the tab now too:
select rating
Wanna post a correction for this tab? Suggest correction