Oops, an error
Loading. Please wait.

Technopop Bass Tab

25 views 1 this week
no commentswrite comment
1 2 3 4 5
3 more votes to show rating
add to favorites
launch autoscroll
font size
0
reset
guitar tuner
Autoscroll
slow
fast
+/-
esc
set tempo
stop
Help us to improve Ultimate-Guitar.com Take our survey!
×
Author
Difficulty
novice
Bass Start - 00:13


[Intro]

G|-------------------|-------------------|-------------------|-------------------|
D|-------------------|-------------------|-------------------|-------------------|
A|-------------------|--2-2-2-2-2-2-2-2--|--0-0-0-0-0-0-0-0--|--5-5-5-5-5-5-5-5--|
E|--3-3-3-3-3-3-3-3--|-------------------|-------------------|-------------------|


G|-------------------|-------------------|-------------------|-------------------|
D|-------------------|-------------------|-------------------|-------------------|
A|-------------------|--2-2-2-2-2-2-2-2--|--0-0-0-0-0-0-0-0--|--5-5-5-5-5-5-5-5--|
E|--3-3-3-3-3-3-3-3--|-------------------|-------------------|-------------------|


[Verse 1]

G|----------------|-----------------|-------------------|-----------------|
D|----------------|-----------------|-------------------|-----------------|
A|--7-7-5-7----5--|--7-7-5-7----7\--|--3-3-3-3-3-3-3-3--|-----------------|
E|----------0-----|----------0------|-------------------|--3-3-3-3-3-3-2--|


G|-----------------|------------------|-------------------|-------------------|
D|-----------------|------------------|-------------------|-------------------|
A|--7-7-7-7-5h7----|--7-7-7-7-5h7-5\--|--3-3-3-3-3-3-3-3--|-------------------|
E|--------------0--|------------------|-------------------|--3-3-3-3-3-3-3-3--|


G|-------------------|-------------------|-------------------|-------------------|
D|--3-3-0---3-3-0----|--2-2-0---2-2-0----|--0-0-0-0-0-0-0-0--|--0-0-0-0-0-0-0-0--|
A|--------3-------3--|--------2-------2--|-------------------|-------------------|
E|-------------------|-------------------|-------------------|-------------------|


[Verse 2]

G|------------------|------------------|-------------------|-----------------|
D|------------------|------------------|-------------------|-----------------|
A|--7---5-7----5-7--|--7---5-7-5h7-5\--|--3-3-3-3-3-3-3-3--|-----------------|
E|----7-----0-------|----7-------------|-------------------|--3-3-3-3-3-3-2--|


G|-----------------|------------------|-------------------|-------------------|
D|-----------------|------------------|-------------------|-------------------|
A|--7-7-7-7-5h7----|--7---5-7-5h7-5\--|--3-3-3-3-3-3-3-3--|-------------------|
E|--------------0--|----7-------------|-------------------|--3-3-3-3-3-3-3-3--|


G|-------------------|-------------------|-------------------|-----------------|
D|--3-3-0---3-3-0----|--2-2-0---2-2-0----|--0-0-0-0-0-0-0-0--|--0-0-0-0-0------|
A|--------3-------3--|--------2-------2--|-------------------|-------------9\--|
E|-------------------|-------------------|-------------------|-----------------|


[Chorus]

G|----9-9-9--9--9-----|----5-5-5--5--------|----9-9-9--9--9-----|----5-5-5--5--------|
D|--------------------|--------------------|--------------------|--------------------|
A|----------------7\--|--3-----------x-9\--|----------------7\--|--3-----------x-9\--|
E|--0-----------------|--------------------|--0-----------------|--------------------|


G|----9-9-9--9--9-----|----5-5-5--5-------|
D|--------------------|-------------------|
A|----------------7\--|--3-----------x-3--|
E|--0-----------------|-------------------|


[Intro repeat]

G|-------------------|-------------------|-------------------|-------------------|
D|-------------------|-------------------|-------------------|-------------------|
A|-------------------|--2-2-2-2-2-2-2-2--|--0-0-0-0-0-0-0-0--|--5-5-5-5-5-5-5-5--|
E|--3-3-3-3-3-3-3-3--|-------------------|-------------------|-------------------|


[Verse 3]

G|------------------|------------------|-------------------|-----------------|
D|------------------|------------------|-------------------|-----------------|
A|--7-7-5-7----5-7--|--7-7-5-7-7-7-5\--|--3-3-3-3-3-3-3-3--|-----------------|
E|----------0-------|------------------|-------------------|--3-3-3-3-3-3-2--|


G|-----------------|------------------|-------------------|-------------------|
D|-----------------|------------------|-------------------|-------------------|
A|--7-7-7-7-5h7----|--7-7-7-7-5h7-5\--|--3-3-3-3-3-3-3-3--|-------------------|
E|--------------0--|------------------|-------------------|--3-3-3-3-3-3-3-3--|


G|-------------------|-------------------|-------------------|-----------------|
D|--3-3-0---3-3-0----|--2-2-0---2-2-0----|--0-0-0-0-0-0-0-0--|--0-0-0-0-0------|
A|--------3-------3--|--------2-------2--|-------------------|-------------9\--|
E|-------------------|-------------------|-------------------|-----------------|



[Chorus]

G|----9-9-9--9--9-----|----5-5-5--5--------|----9-9-9--9--9-----|----5-5-5--5--------|
D|--------------------|--------------------|--------------------|--------------------|
A|----------------7\--|--3-----------x-9\--|----------------7\--|--3-----------x-9\--|
E|--0-----------------|--------------------|--0-----------------|--------------------|


G|----9-9-9--9--9-----|----5-5-5--5--------|----9-9-9--9--9-----|----5-5-5--5---------|
D|--------------------|--------------------|--------------------|---------------------|
A|----------------7\--|--3-----------x-9\--|----------------7\--|--3-----------3-2-0--|
E|--0-----------------|--------------------|--0-----------------|---------------------|


[Intro repeat]

G|-------------------|-------------------|-------------------|-------------------|
D|-------------------|-------------------|-------------------|-------------------|
A|-------------------|--2-2-2-2-2-2-2-2--|--0-0-0-0-0-0-0-0--|--5-5-5-5-5-5-5-5--|
E|--3-3-3-3-3-3-3-3--|-------------------|-------------------|-------------------|


G|-------------------|-------------------|-------------------|-------------------|
D|-------------------|-------------------|-------------------|-------------------|
A|-------------------|--2-2-2-2-2-2-2-2--|--0-0-0-0-0-0-0-0--|--5-5-5-5-5-5-5-5--|
E|--3-3-3-3-3-3-3-3--|-------------------|-------------------|-------------------|


[Instrumental]

G|----------------|----------------|----------------|----------------|
D|----------------|----------------|----------------|----------------|
A|--------r-------|--------r-------|--------r-------|--------r-------|
E|----------------|----------------|----------------|----------------|


G|----------------|----------------|----------------|----------------|
D|----------------|----------------|----------------|----------------|
A|--------r-------|--------r-------|--------r-------|--------r-------|
E|----------------|----------------|----------------|----------------|


G|----------------|----------------|----------------|----------------|
D|----------------|----------------|----------------|----------------|
A|--------r-------|--------r-------|--------r-------|--------r-------|
E|----------------|----------------|----------------|----------------|


G|----------------|----------------|----------------|----------------|
D|----------------|----------------|----------------|----------------|
A|--------r-------|--------r-------|--------r-------|--------r-------|
E|----------------|----------------|----------------|----------------|


G|-------------------|------------------|-------------------|-----------------|
D|-------------------|------------------|-------------------|-----------------|
A|--7-7-5-7-7-7-5-7--|--7-7-5-7-7-7-5\--|--3-3-3-3-3-3-3-3--|-----------------|
E|-------------------|------------------|-------------------|--3-3-3-3-3-3-2--|


G|-------------------|------------------|-------------------|-------------------|
D|-------------------|------------------|-------------------|-------------------|
A|--7-7-7-7-5h7------|--7-7-7-7-5h7-5\--|--3-3-3-3-3-3-3-3--|-------------------|
E|--------------0-0--|------------------|-------------------|--3-3-3-3-3-3-3-3--|


G|-------------------|-------------------|-------------------|-----------------|
D|--3-3-0---3-3-0----|--2-2-0---2-2-0----|--0-0-0-0-0-0-0-0--|--0-0-0-0-0------|
A|--------3-------3--|--------2-------2--|-------------------|-------------9\--|
E|-------------------|-------------------|-------------------|-----------------|
        

[Chorus]

G|----9-9-9--9--9-----|----5-5-5--5--------|----9-9-9--9--9-----|----5-5-5--5--|
D|--------------------|--------------------|--------------------|--------------|
A|----------------7\--|--3-----------x-9\--|----------------7\--|--3-----------|
E|--0-----------------|--------------------|--0-----------------|--------------|


G|----9-9-9--9--9-----|----5-5-5--5--|----9-9-9--9--9-----|----5-5-5--5--------|
D|--------------------|--------------|--------------------|--------------------|
A|----------------7\--|--3-----------|----------------7\--|--3-----------x-9\--|
E|--0-----------------|--------------|--0-----------------|--------------------|


G|----9-9-9--9--9-----|----5-5-5--5--------|----9-9-9--9--9-----|----5-5-5--5--------|
D|--------------------|--------------------|--------------------|--------------------|
A|----------------7\--|--3-----------x-7\--|----------------7\--|--3-----------x-7\--|
E|--0-----------------|--------------------|--0-----------------|--------------------|


G|----9-9-9--9--9-----|----5-5-5--5--------|----9-9-9--9--9-----|----5-5-5--5---------|
D|--------------------|--------------------|--------------------|---------------------|
A|----------------7\--|--3-----------x-7\--|----------------7\--|--3-----------3-2-0--|
E|--0-----------------|--------------------|--0-----------------|---------------------|


[Outro]

G|-------------------|-------------------|-------------------|-------------------|
D|-------------------|-------------------|-------------------|-------------------|
A|-------------------|--2-2-2-2-2-2-2-2--|--0-0-0-0-0-0-0-0--|--5-5-5-5-5-5-5-5--|
E|--3-3-3-3-3-3-3-3--|-------------------|-------------------|-------------------|


G|-------------------|-------------------|-------------------|-------------------|-----|
D|-------------------|-------------------|-------------------|-------------------|-----|
A|-------------------|--2-2-2-2-2-2-2-2--|--0-0-0-0-0-0-0-0--|--5-5-5-5-5-5-5-5--|-----|
E|--3-3-3-3-3-3-3-3--|-------------------|-------------------|-------------------|--3--|



*********************

| / : slide up
| \ : slide down
| h : hammer-on
| x : dead note
| r : rest

*********************

in regular sequence!
Suggest correction
Give kudos to tab author, rate the tab!
1 2 3 4 5
comments
print report bad tab
guest
You may want to rate the tab now too:
select rating
Wanna post a correction for this tab? Suggest correction