Oops, an error
Loading. Please wait.

Else bass

217 views 1 this week
no commentswrite comment
1 2 3 4 5
3 more votes to show rating
add to favorites
×
Save as Personal and add changes to this tab that will be seen only by you. Learn more ›
×
You can save this tab as Personal to edit and correct it or add notes. All changes will be seen only by you. Learn more »
launch autoscroll
font size
0
reset
guitar tuner
edit
Autoscroll
slow
fast
+/-
esc
set tempo
stop
Author
G|--------------------------------------------------------------------|
D|----------11----------------11--------------11----------------11----|
A|--12--12------12--12-12-12------12--12--12------12--12-12-12------12| (Repeat until lyrics)
E|--------------------------------------------------------------------|

   Finally     I         don't   mind
G|--------------------------------------------------------------------|
D|----------11----------------11--------------11----------------11----|
A|--12--12------12--12-12-12------12--12--12------12--12-12-12------12|
E|--------------------------------------------------------------------|

   Worthless    tries        at   finding        something        else
G|--------------------------------------------------------------------|
D|---------11-----------------11--------------14----------------14----|
A|--11--11------11--11-11-11------11/-14--14------14--14-14-14------14|
E|--------------------------------------------------------------------|

G|--------------------------------------------------------------------|
D|----------11----------------11--------------11----------------11----|
A|--12--12------12--12-12-12------12--12--12------12--12-12-12------12|
E|--------------------------------------------------------------------|

    Best not    talk        too   loud
G|--------------------------------------------------------------------|
D|----------11----------------11--------------11----------------11----|
A|--12--12------12--12-12-12------12--12--12------12--12-12-12------12|
E|--------------------------------------------------------------------|

You're not as   smart         as you          require           of them
G|--------------------------------------------------------------------|
D|---------11-----------------11--------------14----------------14----|
A|--11--11------11--11-11-11------11/-14--14------14--14-14-14------14|
E|--------------------------------------------------------------------|

G|--------------------------------------------------------------------|
D|----------11----------------11--------------11----------------11----|
A|--12--12------12--12-12-12------12--12--12------12--12-12-12------12|
E|--------------------------------------------------------------------|

 Your body              breaks your needs   consume        you forever
G|--------------------------------------------------------------------|
D|---------11-----------------11--------------14----------------14----|
A|--11--11------11--11-11-11------11/-14--14------14--14-14-14------14|
E|--------------------------------------------------------------------|

G|--------------------------------------------------------------------|
D|----------11----------------11--------------11----------------11----|
A|--12--12------12--12-12-12------12--12--12------12--12-12-12------12|
E|--------------------------------------------------------------------|

   And with this lies        the need         to       be here together
G|--------------------------------------------------------------------|
D|---------11-----------------11--------------14----------------14----|
A|--11--11------11--11-11-11------11/-14--14------14--14-14-14------14|
E|--------------------------------------------------------------------|

G|--------------------------------------------------------------------|
D|----------11----------------11----------11--14--11/-----14--16--14--|
A|--12--12------12--12-12-12------12--11--------------14--------------| (Repeat until lyrics)
E|--------------------------------------------------------------------|

    Funny       thing      with   blood
G|--------------------------------------------------------------------|
D|----------11----------------11--------------11----------------11----|
A|--12--12------12--12-12-12------12--12--12------12--12-12-12------12|
E|--------------------------------------------------------------------|

  You try to    stand      but   neither          leg's           awake
G|--------------------------------------------------------------------|
D|---------11-----------------11--------------14----------------14----|
A|--11--11------11--11-11-11------11/-14--14------14--14-14-14------14|
E|--------------------------------------------------------------------|

G|--------------------------------------------------------------------|
D|----------11----------------11--------------11----------------11----|
A|--12--12------12--12-12-12------12--12--12------12--12-12-12------12|
E|--------------------------------------------------------------------|

    Just this   side        of  love                                Is
G|--------------------------------------------------------------------|
D|----------11----------------11--------------11----------------11----|
A|--12--12------12--12-12-12------12--12--12------12--12-12-12------12|
E|--------------------------------------------------------------------|

  where you'll    find    the confidence      not to     continue
G|--------------------------------------------------------------------|
D|---------11-----------------11--------------14----------------14----|
A|--11--11------11--11-11-11------11/-14--14------14--14-14-14------14|
E|--------------------------------------------------------------------|

G|--------------------------------------------------------------------|
D|----------11----------------11--------------11----------------11----|
A|--12--12------12--12-12-12------12--12--12------12--12-12-12------12|
E|--------------------------------------------------------------------|

Your body              breaks your needs   consume        you forever
G|--------------------------------------------------------------------|
D|---------11-----------------11--------------14----------------14----|
A|--11--11------11--11-11-11------11/-14--14------14--14-14-14------14|
E|--------------------------------------------------------------------|

G|--------------------------------------------------------------------|
D|----------11----------------11--------------11----------------11----|
A|--12--12------12--12-12-12------12--12--12------12--12-12-12------12|
E|--------------------------------------------------------------------|

   And with this lies        the need         to       be here together
G|--------------------------------------------------------------------|
D|---------11-----------------11--------------14----------------14----|
A|--11--11------11--11-11-11------11/-14--14------14--14-14-14------14|
E|--------------------------------------------------------------------|

G|--------------------------------------------------------------------|
D|----------11----------------11----------11--14--11/-----14--16--14--|
A|--12--12------12--12-12-12------12--11--------------14--------------| (Repeat until end)
E|--------------------------------------------------------------------|

That's the whole song. 
Suggest correction
Creating personal tab
Creating personal tab
You can edit any tab online and save it as your Personal.

You can edit, replace or remove any tab part or add personal notes – all changes will be seen only by you.

Personal tabs can be accessed anytime from any device, even offline.
Learn more »
Give kudos to tab author, rate the tab!
1 2 3 4 5
comments
print report bad tab
guest
You may want to rate the tab now too:
select rating
Wanna post a correction for this tab? Suggest correction