Oops, an error
Loading. Please wait.

Fling tab

version 3
version 3

Whole song

  • Actually contains all components to the song rather than snippets.
76 views 1 this week
no commentswrite comment
1 2 3 4 5
3 more votes to show rating
add to favorites
×
Save as Personal and add changes to this tab that will be seen only by you. Learn more ›
×
You can save this tab as Personal to edit and correct it or add notes. All changes will be seen only by you. Learn more »
launch autoscroll
font size
0
reset
how to read this tab
guitar tuner
edit
Autoscroll
slow
fast
+/-
esc
set tempo
stop
About this tab version
Actually contains all components to the song rather than snippets. Was this info helpful? Yes No
I've been watching videos of Doug playing it live, and I think this tab is more accurate than
previous versions in respect to how Part C goes.

Capo: 1st Fret
Tuning: Standard
Difficulty: Noviceish

Just strum your heart out for it.

Part A

E||--0----0----7---5--0--7--5--7--5--0--||
B||--5----5----6---6--6--6--6--6--6--6--||
G||--7----6----7---7--7--7--7--7--7--7--||
D||--7----7----0---0--0--0--0--0--0--0--||
A||--0----0----0---0--0--0--0--0--0--0--||
E||-------------------------------------||

Part B

E||--0--0--0--0--||
B||--5--5--7--0--||
G||--6--7--9--7--||
D||--7--7--9--9--||
A||--0--0--0--9--||
E||--------------||

Part C

E||---0---0---0---0---0--12--10---0--||
B||--12--10---0--10--12---0---0--10--||
G||--11--11--11--11--11- 11--11--11--||   
D||---0---0---0---0---0---0---0---0--|| x3
A||---0---0---0---0---0---0---0---0--||
E||----------------------------------||

E||---0---0---0---0---0---9--||
B||--12--10---0--10--12---0--|| Strum that last chord nice and fast.
G||--11--11--11--11--11- 11--||   
D||---0---0---0---0---0---0--||
A||---0---0---0---0---0---0--||
E||--------------------------||

Part A x 4

Part B x 2

Part C x 1

Part A x 4

Part B x 2

Part C x 1

Part A x ad infinitum
Suggest correction
Creating personal tab
Creating personal tab
You can edit any tab online and save it as your Personal.

You can edit, replace or remove any tab part or add personal notes – all changes will be seen only by you.

Personal tabs can be accessed anytime from any device, even offline.
Learn more »
Give kudos to tab author, rate the tab!
1 2 3 4 5
comments
print report bad tab
guest
You may want to rate the tab now too:
select rating
Wanna post a correction for this tab? Suggest correction