Oops, an error
Loading. Please wait.

Liar Tab

24,406 views 6 this week
2 commentsread comments
1 2 3 4 5
x 7
add to favorites
launch autoscroll
font size
0
reset
how to read this tab
guitar tuner
Autoscroll
slow
fast
+/-
esc
set tempo
stop
Help us to improve Ultimate-Guitar.com Take our survey!
×
Author
The verses and chorus are all the same, C, G, Dmin and F

C        G             Dmin      F    
I would only be a liar
No I would only be a liar if I told you that
I would only be a liar

When things are all you think of
And plans are all you make
And thoughts are all you dream of
And falls are all you take
Look out, the world's destroyin' ya
Relax; it isn't fair
Mother Nature's disposition
She don't mind, she don't care
She don't mind, she don't care

Bridge Section

G        Amin
Passing over   

F           C
Passions grow old

Amin     Dmin
Passing everything

Not sure on the solo, pretty much in F major pentatonic/A minor pentatonic

Post-solo Melody

  C       G       Dm       F  
e|-------------------5-3-1-0-1-3-1------------------------------------|
B|-1-5-3-1---5-3-1-3--------------------------------------------------|
G|---------0----------------------------------------------------------|
D|--------------------------------------------------------------------|
A|--------------------------------------------------------------------|
E|--------------------------------------------------------------------|

Suggest correction
comments
print report bad tab
2 comments total.
+2 reply
guitar-tab-kid 62 Nov 11, 2007 01:28 PM

the solo's off a little bit and the chords were right but not needed. this tab was no help to me whatsoever.

0 reply
jakemlnarik 10 Oct 30, 2009 08:41 PM

Little riff at the end should be

e|--------------------5-3-1-0-1-3-1|R
b|1-3-5-3-s/6-5-3-1-3--------------|E
g|---------------------------------|P
d|---------------------------------|E
a|---------------------------------|A
E|---------------------------------|T

guest
You may want to rate the tab now too:
select rating
Wanna post a correction for this tab? Suggest correction