Oops, an error
Loading. Please wait.

Living Zoo chords

2,374 views 21 this week
3 commentsread comments
1 2 3 4 5
x 4
add to favorites
×
Save as Personal and add changes to this tab that will be seen only by you. Learn more ›
×
You can save this tab as Personal to edit and correct it or add notes. All changes will be seen only by you. Learn more »
launch autoscroll
font size
0
reset
transpose
0
reset
display chords
guitar tuner
edit
Autoscroll
slow
fast
+/-
esc
set tempo
stop
Author
Difficulty
Strumming
There is no strumming pattern for this song yet. and get +5 IQ
---------------------------------------------------------------------------
                             LIVING ZOO – Built To Spill
---------------------------------------------------------------------------
Tabbed by: Benson       
E-mail: dontcallmebenny@hotmail.com

Tuning: Standard

Intro Part 1: I’m not sure about this part, sounds ok but I don’t think it’s totally correct, 
any improvements welcome!!

e|------------------------------------------------------------------------|
B|-12-12-12-12--7-7-7-7--10-10-10-10--8-8-10-10---------------------------|
G|------------------------------------------------------------------------|
D|-12-12-12-12--4-4-4-4---7--7--7--7--5-5--7--7---------------------------|
A|------------------------------------------------------------------------|
E|------------------------------------------------------------------------|


Intro Part 2:

e|-3---2-0--0-------------------|
B|-0---3----1-0-----------------|
G|-0---2----2-----0--0--0-------|
D|-0---0----2----4--4--4--------| Play 4 times with slight variations
A|-2--------0---3--3--3---------|
E|-3----------------------------|

Verse – each Amin chord alternates between Am and Asus2, so just alternate between fretting the first fret on 
the B string and the open B string

G   D   Am        
We know where we wanna go
G   D        Am
But we can’t tell
G   D        Am  
Alone how to navigate
G   D          Am
Our way through hell

Bridge

D     Am
Ahhhh ahhhh
C      G
That’s alright
D     Am
Ahhhh ahhhh
C     G 
Doing fine

Middle Section

Am   Em 
     Being a human
Am   Em 
     Being an animal too
Am   Em    
     Being all wrong and
Am   Em 
     Being all me an you

Then back to the verse chords

            
            
Suggest correction
Creating personal tab
Creating personal tab
You can edit any tab online and save it as your Personal.

You can edit, replace or remove any tab part or add personal notes – all changes will be seen only by you.

Personal tabs can be accessed anytime from any device, even offline.
Learn more »
comments
print report bad tab
3 comments total.
0 reply
Miamasa 227 Jul 28, 2015 01:55 PM, edited at 05:55 pm

I believe the middle section goes Am Em D Em

But otherwise great!

+1 reply
p1971cuda 37 Jan 25, 2016 09:14 PM

I think this is the correct way to play the intro

e|------------------------------------------------------------------------|
B|-12-12-12-12--7-7-7-7--10-10-10-10--8-8-10-10---------------------------|
G|------------------------------------------------------------------------|
D|-----------------------10-10-10-10--9-9-10-10---------------------------|
A|-10-10-10-10--9-9-9-9---------------------------------------------------|
E|------------------------------------------------------------------------|

guest
You may want to rate the tab now too:
select rating
Wanna post a correction for this tab? Suggest correction