Oops, an error
Loading. Please wait.

Temporarily Blind tab

4,278 views 9 this week
2 commentsread comments
1 2 3 4 5
x 4
add to favorites
×
Save as Personal and add changes to this tab that will be seen only by you. Learn more ›
×
You can save this tab as Personal to edit and correct it or add notes. All changes will be seen only by you. Learn more »
launch autoscroll
font size
0
reset
how to read this tab
guitar tuner
edit
Autoscroll
slow
fast
+/-
esc
set tempo
stop
Author
Difficulty
Tabbed by:CMM
Email:colin_michael_muppet@hotmail.com

Tuning: Standard (Two guitars, One with slide)

| /  slide up
| \  slide down
| h  hammer-on
| p  pull-off
| ~  vibrato
| +  harmonic
| x  Mute note
---------------------------------------------------------------------------

(Intro)
e|-5---5---5---5---5---5---5---5----|
B|---7---7---7---7---7---7---7---7--|
G|----------------------------------|
D|----------------------------------|
A|----------------------------------|
E|----------------------------------|

(Main Riff/Verse One)
e|-5---5---5---5h7--5---5---5---5h7----------------------------------------|
B|---7---7---7--------7---7---7------5---5---5---5h7-----------------------|
G|-------------------------------------7---7---7----------------7\---------|
D|------------------------------------------------------7b9---------(5)/7--|
A|-------------------------------------------------------------------------|
E|-------------------------------------------------------------------------|

(Slide Guitar)
e|-(10)/14----------17\---10----------------------------------------------|
B|------------------------------------------------10/12-------------------|
G|------------------------------------------------------------------------|
D|------------------------------------------------------------------------|
A|------------------------------------------------------------------------|
E|------------------------------------------------------------------------|

(Bridge One)
e|-------------------------------------------------------------------------|
B|-------------------------------------------------------------------------|
G|-----------0-----------------2----------------0----------------2---------|
D|------4-------2h4---------4-----2h4--------4-----2h4--------4-----2h4----|
A|-2-2-----------------2-2--------------2-2--------------2-2---------------|
E|-------------------------------------------------------------------------|

(Bridge One Slide Guitar)
e|-------------------------------------------------------------------------|
B|----------7\3---------------7\3---------------7\3-------------7\3--------|
G|----------------2/4---------------2/4---------------2/4-------------2/4--|
D|-------------------------------------------------------------------------|
A|-------------------------------------------------------------------------|
E|-------------------------------------------------------------------------|

(Transition One)
e|-------------------------------------------------------------------------|
B|-------------------------------------------------------------------------|
G|-11-11-11-11-11-11--11-11-11-11-11-11--12-12-12-12-12-12--12-12-12-12-12-|
D|--x--x--x--x--x--x---x--x--x--x--x--x---x--x--x--x--x--x---x--x--x--x--x-|
A|--9--9--9--9--9--9---9--9--9--9--9--9--10-10-10-10-10-10--10-10-10-10-10-|
E|-------------------------------------------------------------------------|

NOTE: Played several times.

(Guitar Solo)
e|--14-14-14-14------14-14-14-14------14-14-14-14------14-14-14-14------|
B|--------------12---------------12---------------12---------------12---|
G|----------------------------------------------------------------------|
D|----------------------------------------------------------------------|
A|----------------------------------------------------------------------|
E|----------------------------------------------------------------------|

NOTE: Played several times.

(Second Guitar during solo)
e|-------------------------------------------------------------------------|
B|-------------------------------------------------------------------------|
G|-------------------------------------------------------------------------|
D|--------------4\2/4-------------4\2/4------------4\2/4-----------4\2/4---|
A|-------------------------------------------------------------------------|
E|-------------------------------------------------------------------------|

(Transition Two)
e|-------------------------------------------------------|
B|-------------------------------------------------------|
G|-4~----6~----7~----9~----4~----6~----7~----12~----11---|
D|-x-----x-----x-----x-----x-----x-----x------x------x---|
A|-2~----4~----5~----7~----2~----4~----5~----10~-----9---|
E|-------------------------------------------------------|

(Transition Three)
e|-----------------------------------------|
B|-----------------------------------------|
G|---------7--7-----------------------7----|
D|--4--4---x--x---5--x--7--7--5--4----x----|
A|--x--x---5--5---x--x--x--x--x--x----5----|
E|--2--2----------3--x--5--5--3--2---------|


(Verse Two Slide Guitar)
e|------------------------------------------------------------------------|
B|------------------------------------------------------------------------|
G|-/7-----------/9-------/12-11---7/9\7-6/7\6-4---4/6\4--/7---/12--11-\7--|
D|------------------------------------------------------------------------|
A|------------------------------------------------------------------------|
E|------------------------------------------------------------------------|

e|-------------------------------------------------------------------------|
B|-------------------------------------------------------------------------|
G|-7/9--------/12--11---7/9\7-6/7\6-4-----4/6\4--0-------------------------|
D|---------------------------------------------------4\2--0---(4\2\0)------|
A|-------------------------------------------------------------------------|
E|-------------------------------------------------------------------------|


(Bridge)
e|-------------------------------------------------------------------------|
B|-10h12p10--8h10p8--7h8p7--5h7p5--3~---10h12p10--8h10p8--7h8p7--5h7p5--3~-|
G|-------------------------------------------------------------------------|
D|-------------------------------------------------------------------------|
A|-------------------------------------------------------------------------|
E|-------------------------------------------------------------------------|

(Bridge Slide Guitar)
e|-(5)/9---------------14\(10)----------(5)/9--------------14\(10)---------|
B|-------------------------------------------------------------------------|
G|-------------------------------------------------------------------------|
D|-------------------------------------------------------------------------|
A|-------------------------------------------------------------------------|
E|-------------------------------------------------------------------------|

(Pre-Solo)
e|----------------------------|
B|----------------------------|
G|--------7--7---4--4---2--2--|
D|-4--4---7--7---4--4---2--2--|
A|-4--4---5--5---2--2---0--0--|
E|-2--2-----------------------|

(Wah Solo)
e|------------------------------------------------|
B|--10--10--10--7--7--7---------------------------|
G|-----------------------7--7--7--6h7h9-----------|
D|---------------------------------------7--7-----|
A|------------------------------------------------|
E|------------------------------------------------|

(Outro Keyboards)
e|---14-14-14--12-12-12---14-14-14--12-12-12---|
B|---------------------------------------------|
G|---------------------------------------------|
D|---------------------------------------------|
A|---------------------------------------------|
E|---------------------------------------------|

===============================================================================

            
            
Suggest correction
Creating personal tab
Creating personal tab
You can edit any tab online and save it as your Personal.

You can edit, replace or remove any tab part or add personal notes – all changes will be seen only by you.

Personal tabs can be accessed anytime from any device, even offline.
Learn more »
comments
print report bad tab
2 comments total.
+3 reply
WhatIfThis 10 Sep 25, 2011 11:34 AM

I think the wah solo should be this:

e--9---------5--------------------------
B----10-10-----7-7---7------------------
G----------------------7-7---6h7h9------
D----------------------------------7-7--

+2 reply
Brendan46 10 Jun 27, 2015 10:12 AM

Doug's part during the wah solo:

e|-------------0---------------------0---------|
B|-----3---0h3---3-----------3---0h3---3-------|
G|-----------------2-----2h4-------------2-----|
D|-2h4-----------------------------------------|
A|---------------------------------------------|
E|---------------------------------------------|

guest
You may want to rate the tab now too:
select rating
Wanna post a correction for this tab? Suggest correction