Oops, an error
Loading. Please wait.

Wait tab

4,494 views 3 this week
1 commentread comment
1 2 3 4 5
x 3
add to favorites
×
Save as Personal and add changes to this tab that will be seen only by you. Learn more ›
×
You can save this tab as Personal to edit and correct it or add notes. All changes will be seen only by you. Learn more »
launch autoscroll
font size
0
reset
how to read this tab
guitar tuner
edit
Autoscroll
slow
fast
+/-
esc
set tempo
stop
Built to Spill
"The Wait"

Tabbed by: Rory McCann
Email: romccann@gmail.com

Tuning: Standard

Verse is G-C ("You wait...")

Chorus: ("And she says patience...") D (bust out the sus chords)-C-Am-C-D

Then go to G and then play this before strumming an Em

e|-----------------------0-------------------------------------------------|
B|-----------------------0-------------------------------------------------|
G|-----------------------0-------------------------------------------------|
D|-----------------------2-------------------------------------------------|
A|----------0--2---------2-------------------------------------------------|
E|---0--3---------3--2---0-------------------------------------------------|

When the wind and all the sound effects and soloing comes in I think he's playing a 
progression underneath.

            
            
Suggest correction
Creating personal tab
Creating personal tab
You can edit any tab online and save it as your Personal.

You can edit, replace or remove any tab part or add personal notes – all changes will be seen only by you.

Personal tabs can be accessed anytime from any device, even offline.
Learn more »
Give kudos to tab author, rate the tab!
1 2 3 4 5
comments
print report bad tab
1 comment total.
0 reply
murdoc562 83 Feb 13, 2013 02:51 PM

Actually...

e|------------------------0-------------------------|
B|---------------0--------0-------------------------|
G|------------0-----0-----0-------------------------|
D|--------2------------2--2-------------------------|
A|----3-------------------2-------------------------|
E|------------------------0-------------------------|

guest
Wanna post a correction for this tab? Suggest correction