Oops, an error
Loading. Please wait.

Ama Namin Tab

67 views 6 this week
no commentswrite comment
1 2 3 4 5
3 more votes to show rating
add to favorites
launch autoscroll
font size
0
reset
how to read this tab
guitar tuner
Autoscroll
slow
fast
+/-
esc
set tempo
stop
Help us to improve Ultimate-Guitar.com Take our survey!
×
Author
Difficulty
Tuning
intermediate
D A D G B E
About this tab version
Changed the fingerings for some of the harder parts of the song to make it easier. Was this info helpful? Yes No
Ama Namin by Fr. Manoling Francisco, S.J.
Arranged by: Jose Valdez
Transcribed by: Aaron Custodio

This was transcribed from a cover by Raffy Lata found on Youtube.(https://www.youtube.com/watch?v=jLTJKGR--5A)
I tried matching up the notes to the words of the song so it'll be a bit easier to learn.



        INTRO
e|----8-7-7---5---3-3-----0-1-3------------|--1---1-0--------------------------------------|
B|--------------------6-6-1-----1-----1----|----------3---0-1-1-------1---------------1----|
G|--5-----------5-5---5-------------0---2--|------2---5-------2---2-----------------0------|
D|------------3-------3-----------2--------|------3-----0-------3---3---3-2-0---0h2--------|
A|----------3------------------------------|----0-------------3---------------3------------|
D|--------3---------------2----------------|--0-------5------------------------------------|
              ^   ^   ^   ^   ^               ^   ^   ^       ^                      

    AMA NAMIN    SUMASALANGIT KA   SAMBAHIN ANG NGALAN MO        MAPASA-AMIN      ANG KAHA-
e|------0---0-----------0-0-0-----------0---3---1---0----------------0--1---1-----------0--|
B|--1-3-1---1-----1-1-3-------0-----1-3---------2---2--3---------3-3----3---------3---3----|
G|------0---0-0---0---------0---0---0-------2-2-2---0--2-------2---2----2-------2-----2----|
D|--------2-------2-------2-------2-------2-------2----3---3p0---3----------3p0---3--------|
A|------3-------3-------2---------------0-------0--------0----------------0----------------|
D|-----------------------------------------------------0----------------0------------------|
        ^         ^                 ^   ^   ^   ^   ^  ^           ^    ^   ^         ^

   -RIAN MO      SUN-DIN ANG LO--OB  MO        DITO SA LU--PA  PARA NANG SA LANGIT    
e|--1-1--1---------0-----5---3---1---3-----------8--7--7---5---3-3----------0-1-3----------|
B|--3-3--3-------3---6---0-0-------0-1-----1------------------------6----6--1--------------|
G|--3-3--3-3-----3---4---0-------0---0---0-----5-------------5-5----5------------------5---|
D|----3--------3-------0-------0-----2-2-------5-----------3--------3--------------2-------|
A|--1--------1---------------2-------3------s7-----------3---------------------------3-----|
D|-------------------5---------------------------------3--------------------2--------------|
                 ^   ^   ^   ^   ^   ^                 ^   ^   ^    ^          

    BIGYAN MO PO  KAMI        NGA-YON           NG A---MING KAKA--NIN SA A---RAW-A---RAW AT
e|-----8---7--7---5-5---------3-1-3----------------3---1----3-5---3---1--1---0-------------|
B|----------------------6-----------------------1-------------0--------------1---3---1---1-|
G|--5---------------5-----5-2-----------0-----0--------2------0---0----------2-------2-----|
D|--------------------3-----3---------2-----2----------3--------0----------2---2---2-------|
A|--------------3-------------------3-----3----------0-------------------0-------0---------|
D|------------3-------------------2----------------0----------5----------------------------|
              ^             ^                      ^   ^      ^   ^          ^       ^

    PA----TAWARIN MO KA-MI             SA A---MING    MGA SA--LA      PARA NANG  PAG PAPA-
e|--3-----1-5-5---7--0--8-----------------3---1-------0-1-------------8-7--7-----5---3-3---|
B|----------0---------------5s1--------1----------1-------3---3----------------------------|
G|--------2-0-------------------2---------------2---2-----0-5---0--------------------5-----|
D|------3-------------------------2-----------3-------------0-------0----------3-----------|
A|----0-------------------7---------3-------0--------------------------------3-------------|
D|--0-------5-----6-----7-----------------0---------------5-------5--------3---------------|
    ^     ^       ^                       ^   ^           ^                ^   

    TAWAD NAMIN     SA NAGKAKASA--LA        SA  AMIN            AT WAG MO KA-MING I-PAHIN-
e|--------0-1-3-----------8-7-7---5---------3-1-0-1-3--------------3---1--3--5----5-7-0----|
B|--6-6---1---------------------------6---------1-1-1-----------1------------0-------------|
G|--5---------------5--5------------5---5-2-----0-------------0--------------0-------------|
D|--3-----------2-----------------3-------3-------------2-----2--------3-------------------|
A|----------------3-------------3---------------------------3--------0---------------------|
D|--------2-------------------3-----------------2---------2--------0---------5------6------|
    ^                         ^                               ^    ^   ^     ^      ^

   -TULOT SA TUKSO                     AT IHADYA  MO KAMI  SA LAHAT       NG  MASAMA
e|--8-7---5-----0---------------<12>------1---3---1--0-1-----------------------------------|
B|-----------8--1----------------------2-------------------0--1-3---------3---1-0-1--------|
G|--------5-----2---------2<14>-------------------2------2------0---5---4---------2--------|
D|--------------2---2<14>-------------------------3---------------0---0-----0-----3---3----|
A|----7---------0-------------------------------0-----------------------------------3---3--|
D|--7-----------------------------------------0-----------------5-------5------------------|
                ^                             ^   ^             ^       ^         ^


e|-------------------1<20>----|
B|--1-------------------------|
G|-----------------0----------|
D|----3-2-0----0h2------------|
A|-----------3----------------|
D|----------------------------|


Legend:
    
|  p - pull-off
|  h - hammer-on
|  s - slide
|  ^ - strum notes (or pluck individually in quick succession)
Suggest correction
Give kudos to tab author, rate the tab!
1 2 3 4 5
comments
print report bad tab
guest
You may want to rate the tab now too:
select rating
Wanna post a correction for this tab? Suggest correction