Oops, an error
Loading. Please wait.

Boys tab

364 views 1 this week
2 commentsread comments
1 2 3 4 5
2 more votes to show rating
add to favorites
×
Save as Personal and add changes to this tab that will be seen only by you. Learn more ›
×
You can save this tab as Personal to edit and correct it or add notes. All changes will be seen only by you. Learn more »
launch autoscroll
font size
0
reset
how to read this tab
guitar tuner
edit
Autoscroll
slow
fast
+/-
esc
set tempo
stop
Author
I think this is how Georgie plays it. Strum these chords. Structure should be obvious but it's verse/chorus/
verse/chorus. It sounds quite nice if you ignore muting the top 3 strings when you play the Gmaj7 chord
sometimes.

[Verse]

e|--x--------------------------------x---------------------------------------|
B|--x--------------------------------x---------------------------------------|
G|--x--------------------------------x---------------------------------------|
D|--11-------------------------------4---------------------------------------|
A|--12-------------------------------5---------------------------------------|
E|--10-------------------------------3---------------------------------------|

e|---------------------------------------------------------------------------|
B|---------------------------------------------------------------------------|
G|---6-----------------------------------------------------------------------|
D|---5-----------------------------------------------------------------------|
A|---7-----------------------------------------------------------------------|
E|---5-----------------------------------------------------------------------|

or instead of that last chord you could just play an open A7. play the A7 until she sings "young"


[Chorus]

e|--x--------------------------------x---------------------------------------|
B|--x--------------------------------x---------------------------------------|
G|--x--------------------------------x---------------------------------------|
D|--4--------------------------------11--------------------------------------|
A|--5--------------------------------12--------------------------------------|
E|--3--------------------------------10--------------------------------------|

e|--x--------------------------------x---------------------------------------|
B|--x--------------------------------x---------------------------------------|
G|--x--------------------------------x---------------------------------------|
D|--9--------------------------------8---------------------------------------|
A|--9--------------------------------8---------------------------------------|
E|--7--------------------------------6---------------------------------------|


[Alternate chorus]

Personally i like playing the chorus with open, fuller chords, like so

e|--2--------------------------------2---------------------------------------|
B|--0--------------------------------2---------------------------------------|
G|--0--------------------------------2---------------------------------------|
D|--0--------------------------------0---------------------------------------|
A|--2------------------------------------------------------------------------|
E|--3------------------------------------------------------------------------|

e|--2--------------------------------1---------------------------------------|
B|--3--------------------------------3---------------------------------------|
G|--4--------------------------------3---------------------------------------|
D|--4--------------------------------3---------------------------------------|
A|--2--------------------------------1---------------------------------------|
E|---------------------------------------------------------------------------|


Lyrics:

[Verse]

fake a smile for southern california 
drive to oceanside and stare out at the water 
from the pier at night 
the pitch black swaying makes me cold inside 
im drunk and feeling funny on a wednesday night 
im high and feeling stupid on a monday night 


[Chorus]

good boys die young 
washed up on your shore 
passed out on my floor 
am I wrong for wanting more 


[Verse]

constant bliss I miss the city 
and you're on my lips 
I made you cry so many times I feel like shit 
I never thought it'd come to this 
our conversations always hit and miss 
im sorry im sorry never cuts it does it 

[Chorus]

good boys die young 
washed up on your shore 
passed out on my floor 
am I wrong for wanting more



************************************

| x  Dead note

************************************
Suggest correction
Creating personal tab
Creating personal tab
You can edit any tab online and save it as your Personal.

You can edit, replace or remove any tab part or add personal notes – all changes will be seen only by you.

Personal tabs can be accessed anytime from any device, even offline.
Learn more »
Give kudos to tab author, rate the tab!
1 2 3 4 5
comments
print report bad tab
2 comments total.
0 reply
dramamines 10 Apr 22, 2017 06:36 PM

THANK U.....

guest
You may want to rate the tab now too:
select rating
Wanna post a correction for this tab? Suggest correction