Oops, an error
Loading. Please wait.

10 Years Today Bass Tab

version 1
version 1

Whole song

Interactive

4,711 views 1 this week
3 commentsread comments
1 2 3 4 5
please rate
add to favorites
launch autoscroll
font size
0
reset
guitar tuner
Tab Pro tools
  • play this tab
  • loop segment
  • change instrument
  • show fretboard
  • metronome
×
Best way to learn
"10 Years Today"
Autoscroll
slow
fast
+/-
esc
set tempo
stop
Contributor
Artist: Bullet For My Valentine
Song: 10 Years Today
Album: The Poison
Tuning: Dropped C

This is the bass tab from my Guitar Pro version, for those who do not have GP5!

Intro:
 2/4       4/4                               16/8
|---------|----------------|----------------|--------------------------------|
|---------|----------------|----------------|--------------------------------|
|---------|----------------|----------------|--------------3---3-3-5---5-5-5-|
|10\------|222-2-2-------2-|--0-2---5-----4-|--------------------------------|

 4/4                                16/8
|----------------|----------------|--------------------------------|
|----------------|----------------|--------------------------------|
|----------------|----------------|--------------------------------|
|222-2-2-------2-|--0-2---5-----4-|--------------9\----------------|

 4/4                               16/8
|----------------|----------------|--------------------------------|
|----------------|----------------|--------------------------------|
|----------------|----------------|--------------3---3-3-5---5-5-5-|
|222-2-2-------2-|--0-2---5-----4-|--------------------------------|

 4/4                               16/8
|----------------|----------------|--------------------------------|
|----------------|----------------|--------------------------------|
|----------------|----------------|--------------------------------|
|222-2-2-------2-|--0-2---5-----4-|--------------0-----------------|

Verse:
 4/4
|----------------|----------------|----------------|----------------|
|----------------|----------------|----------------|----------------|
|33333-33333-333-|--3-3-3-3-3-3-3-|33333-33333-333-|--3-3-3-3-3-----|
|----------------|----------------|----------------|-----------/12\-|
                                                                       x2
|----------------|----------------|----------------|----------------|
|----------------|----------------|----------------|----------------|
|----------------|----------------|----------------|----------------|
|2---2-----2---2-|--2-2-2-4-4-4-4-|2---2-----2---2-|--2-2-2-2-2-2-2-|

Pre-Chorus:
|----------------|----------------|----------------|----------------|
|----------------|----------------|----------------|----------------|
|----------------|----------------|--------------7-|------------5---|
|0---------------|--------------2-|----------------|----------------|
                                                    
                                                    3/8
|----------------|----------------|----------------|------|
|----------------|----------------|----------------|------|
|----------------|----------------|----------------|------|
|----------------|--------2-----2-|----------------|------|

Chorus:
 4/4
|----------------|----------------|----------------|----------------|----------------|
|----------------|----------------|----------------|----------------|----------------|
|3---3---3-3-3---|----------------|----------------|--------------3-|----3---3-3-3-5-|
|--------------0-|--0-0---0-0-0-2-|--2-2---2-2-2-4-|--4-4-5---5-5---|----------------|

                                   7/8            4/4
|----------------|----------------|--------------|----------------|----------------|
|----------------|----------------|--------------|----------------|----------------|
|--5-5---5-5-5---|----------------|--------------|3---3---3-3-3---|----------------|
|--------------2-|--2-2---2-2-2-2-|--------------|--------------0-|--0-0---0-0-0-2-|

|----------------|----------------|----------------|----------------|----------------|----------------|
|----------------|----------------|----------------|----------------|----------------|----------------|
|----------------|--------------3-|----3---3-3-3-5-|--5-5---5-5-5---|----------------|----------------|
|--2-2---2-2-2-4-|--4-4-5---5-5---|----------------|--------------2-|--2-2---2-2-2-2-|/12\------------|

Pre-Verse:
                                   16/8
|----------------|----------------|--------------------------------|
|----------------|----------------|--------------------------------|
|----------------|----------------|--------------3---3-3-5---5-5-5-|
|222-2-2-------2-|--0-2---5-----4-|--------------------------------|

 4/4                               16/8
|----------------|----------------|--------------------------------|
|----------------|----------------|--------------------------------|
|----------------|----------------|--------------------------------|
|222-2-2-------2-|--0-2---5-----4-|--------------0-----------------|

Verse:
 4/4
|----------------|----------------|----------------|----------------|
|----------------|----------------|----------------|----------------|
|33333-33333-333-|--3-3-3-3-3-3-3-|33333-33333-333-|--3-3-3-3-3-----|
|----------------|----------------|----------------|-----------/12\-|
                                                                       x2
|----------------|----------------|----------------|----------------|
|----------------|----------------|----------------|----------------|
|----------------|----------------|----------------|----------------|
|2---2-----2---2-|--2-2-2-4-4-4-4-|2---2-----2---2-|--2-2-2-2-2-2-2-|

Pre-Chorus:
|----------------|----------------|----------------|----------------|
|----------------|----------------|----------------|----------------|
|----------------|----------------|--------------7-|------------5---|
|0---------------|--------------2-|----------------|----------------|
                                                    
                                                    3/8
|----------------|----------------|----------------|------|
|----------------|----------------|----------------|------|
|----------------|----------------|----------------|------|
|----------------|--------2-----2-|----------------|------|

Chorus:
 4/4
|----------------|----------------|----------------|----------------|----------------|
|----------------|----------------|----------------|----------------|----------------|
|3---3---3-3-3---|----------------|----------------|--------------3-|----3---3-3-3-5-|
|--------------0-|--0-0---0-0-0-2-|--2-2---2-2-2-4-|--4-4-5---5-5---|----------------|

                                   7/8            4/4
|----------------|----------------|--------------|----------------|----------------|
|----------------|----------------|--------------|----------------|----------------|
|--5-5---5-5-5---|----------------|--------------|3---3---3-3-3---|----------------|
|--------------2-|--2-2---2-2-2-2-|--------------|--------------0-|--0-0---0-0-0-2-|

                                                                                      7/8
|----------------|----------------|----------------|----------------|----------------|--------------|
|----------------|----------------|----------------|----------------|----------------|--------------|
|----------------|--------------3-|----3---3-3-3-5-|--5-5---5-5-5---|----------------|--------------|
|--2-2---2-2-2-4-|--4-4-5---5-5---|----------------|--------------2-|--2-2---2-2-2-2-|--------------|

Bridge:
 4/4
|----------------|----------------|----------------|----------------|----------------|----------------|
|----------------|----------------|----------------|----------------|----------------|----------------|
|----------------|----------------|----------------|----------------|3---------------|----------------|
|2---------------|----------------|----------------|4-------5-------|----------------|----------------|

|----------------|----------------|----------------|----------------|----------------|----------------|
|----------------|----------------|----------------|----------------|----------------|----------------|
|5---------------|----------------|----------------|----------------|----------------|----------------|
|----------------|12\-------------|0-0-0-0-0-0-0-0-|0-0-0-0-0-0-0-0-|0-0-0-0-0-0-0-0-|4-4-4-4-4-4-4-4-|

|----------------|----------------|----------------|----------------|----------------|----------------|
|----------------|----------------|----------------|----------------|----------------|----------------|
|----------------|----------------|----------------|----------------|----------------|----------------|
|5-5-5-5-5-5-5-5-|5-5-5-5-5-5-5-5-|7-7-7-7-7-7-7-7-|7-7-7-7-7-7-7-7-|0-0-0-0-0-0-0-0-|0-0-0-0-0-0-0-0-|

|----------------|----------------|----------------|----------------|----------------|----------------|
|----------------|----------------|----------------|----------------|----------------|----------------|
|----------------|----------------|----------------|----------------|----------------|----------------|
|0-0-0-0-0-0-0-0-|4-4-4-4-4-4-4-4-|5-5-5-5-5-5-5-5-|5-5-5-5-5-5-5-5-|5-----4-----0---|----------------|

|----------------|----------------|----------------|----------------|----------------|----------------|
|----------------|----------------|----------------|----------------|----------------|----------------|
|----------------|----------------|----------------|----------------|----------------|----------------|
|222222222-------|--2222223---0---|222222222-------|--2222223---0---|222222222-------|--2222223---0---|

|----------------|----------------|
|----------------|----------------|
|----------------|----------------|
|2-2-2-2-2-2-2-2-|2-2-2-2-2-------|

Chorus:
 4/4
|----------------|----------------|----------------|----------------|----------------|
|----------------|----------------|----------------|----------------|----------------|
|3---3---3-3-3---|----------------|----------------|--------------3-|----3---3-3-3-5-|
|--------------0-|--0-0---0-0-0-2-|--2-2---2-2-2-4-|--4-4-5---5-5---|----------------|

                                   7/8            4/4
|----------------|----------------|--------------|----------------|----------------|
|----------------|----------------|--------------|----------------|----------------|
|--5-5---5-5-5---|----------------|--------------|3---3---3-3-3---|----------------|
|--------------2-|--2-2---2-2-2-2-|--------------|--------------0-|--0-0---0-0-0-2-|

                                                                                      7/8
|----------------|----------------|----------------|----------------|----------------|--------------|
|----------------|----------------|----------------|----------------|----------------|--------------|
|----------------|--------------3-|----3---3-3-3-5-|--5-5---5-5-5---|----------------|--------------|
|--2-2---2-2-2-4-|--4-4-5---5-5---|----------------|--------------2-|--2-2---2-2-2-2-|--------------|

 4/4
|----------------|----------------|----------------|----------------|----------------|
|----------------|----------------|----------------|----------------|----------------|
|3---3---3-3-3---|----------------|----------------|--------------3-|----3---3-3-3-5-|
|--------------0-|--0-0---0-0-0-2-|--2-2---2-2-2-4-|--4-4-5---5-5---|----------------|

                                   7/8            4/4
|----------------|----------------|--------------|----------------|----------------|
|----------------|----------------|--------------|----------------|----------------|
|--5-5---5-5-5---|----------------|--------------|3---3---3-3-3---|----------------|
|--------------2-|--2-2---2-2-2-2-|--------------|--------------0-|--0-0---0-0-0-2-|

|----------------|----------------|----------------|----------------|----------------|----------------|
|----------------|----------------|----------------|----------------|----------------|----------------|
|----------------|--------------3-|----3---3-3-3-5-|--5-5---5-5-5---|----------------|----------------|
|--2-2---2-2-2-4-|--4-4-5---5-5---|----------------|--------------2-|--2-2---2-2-2-2-|----------------|

End.
 3/4
|------------|
|------------|
|------------|
|222222222---|





comments
We did not receive enough feedback on this tab! Please rate:
print report bad tab
1 2 3 4 5
3 comments total.
0 reply
SilversteinFan0 wrote on October 1 2007, 04:50 pm

alright tab... but can u do like.... every1 a favor and break it up into secions like chorus,verse, outro and stuff instead of putting the full tab out... thx...

0 reply
Lord_Hondros wrote on September 18 2010, 11:58 am

@ SilversteinFan0:
He did. Each of the sections are titled

0 reply
maxpowweer wrote on June 11 2011, 06:32 pm

@ Lord_Hondros:
SilversteinFan0 made the comment 3 years before you commented, clearly xApollox has taken his advice and made the changes

I want to post or [tab]
guest
You may want to rate the tab now too:
select rating
Please do not post tabs as comments. Select "correction" instead!