Oops, an error
Loading. Please wait.

10 Years Today Tab

version 1
version 1

Intro

Whole song

Interactive

6,463 views 3 this week
no commentswrite comment
1 2 3 4 5
x 3
add to favorites
launch autoscroll
font size
0
reset
how to read this tab
guitar tuner
Autoscroll
slow
fast
+/-
esc
set tempo
stop
Help us to improve Ultimate-Guitar.com Take our survey!
×
Author
Bullet For My Valentine- 10 Years Today


Tabbed by: Derrick
Email:Drock24_wi@yahoo.com

This is my first tab so hope it works out for everyone.

Tuning:Drop C
\ = slide down
/ = slide up
* = harmonic
h = hammer on
p = pull off
. = Palm Mute


D|--------------------------------------------------------------------------|
A|--------------------------------------------------------------------------|
F|--------4---------4-2-----------------------4---------4-2---4-2-4/5-4-2---|
C|-- 2222-2--2-0-2-----------5----454----2222-2--2-0-2----------------------|
G|-- 2222----2-0-2--------3-5---5--------2222----2-0-2----------------------|
C|-\.2222----2-0-2----------------------.2222----2-0-2----------------------|

D|--------------------------------------------------------------------------|
A|--------------------------------------------------------------------------|
F|-------4---------4-2h4p2h4p2h4p2----------------------4---------4-2---4-2-|
C|--2222-2--2-0-2----------------------5----454----2222-2--2-0-2------------|
G|--2222----2-0-2-------------------3-5---5--------2222----2-0-2------------|
C|-.2222----2-0-2---------------------------------.2222----2-0-2------------|
                   Verse
D|--------------------------------------------------------------------------|
A|4-5-4-2-------------------------------------------------------------------|
F|-----------------5--55555-5-----------------------------------------------|
C|-----------------5--55555-5------2-2.0-2-2--------------------------------|
G|-----------------3--33333-3------2-2.0-2-2--------------------------------|
C|---------------------------------2-2.0-2-2--------------------------------|
                   Fast Picking(listen for rythem)
Suggest correction
Give kudos to tab author, rate the tab!
1 2 3 4 5
comments
print report bad tab
guest
You may want to rate the tab now too:
select rating
Wanna post a correction for this tab? Suggest correction