Oops, an error
Loading. Please wait.

A Place Where You Belong Bass Tab

version 1
version 1

Whole song

Interactive

5,649 views 3 this week
2 commentsread comments
1 2 3 4 5
please rate
add to favorites
launch autoscroll
font size
0
reset
guitar tuner
Autoscroll
slow
fast
+/-
esc
set tempo
stop
Help us to improve Ultimate-Guitar.com Take our survey!
×
Difficulty
novice
Its tuned a full step down, so DGCF
Come in after the guitar at 0:14

Intro 2x

|--------------------------------------------------------------------------|
|------------------------------2-------------------------------------------|
|-4-4-2-4----------4-4-2-4-----------0--0--0--0--0-0-0000--2222222222222222|
|-------------0------------------------------------------------------------|

First bit of verse 1x

|------------------------------------------------------------------|
|------2--------------2-----------------2--------------2-----------|
|-4--4----0------4--4----0----2222--4--4----0------4--4----0-----2-|
|------------------------------------------------------------------|

Then this 2x

|--------------------------------------------|
|---------2-----------------------2----------|
|-2-4-4-4----0----0--2--0----4--4----0-----2-|
|--------------------------------------------|

this is where matt sings "too late, too late.."
the timing is kinda hard but if you listen to it you should get it.

|------------------------------------------------------------------|
|-------------------------------------------------------2---2-2-22-|
|-0-----2-22----4-----4-44--2222----0-----2-22----4----------------|
|------------------------------------------------------------------|

|----------------------------------------------------------|
|----------------------------------------------------------|
|-0-----2-22----4-----4-44--2222----0-----0-00----2--2----2|
|----------------------------------------------------------|

Solo, which is the same as the first bit of the verse.

|------------------------------------------------------------------|
|------2--------------2-----------------2--------------2-----------|
|-4--4----0------4--4----0----2222--4--4----0------4--4----0-----2-|
|------------------------------------------------------------------|

Then reapeat both parts of verse 1x

then the "too late, too late.." part but variated.

|------------------------------------------------------------------|
|-------------------------------------------------------2---2-2-22-|
|-0-----2-22----4-----4-44--2222----0-----2-22----4----------------|
|------------------------------------------------------------------|

|-----------------------------------------------------------------|
|-----------------------------------------------------------------|
|-0-----2-22----4-----4-44--2222----0-----0-00----2222222222222222|
|-----------------------------------------------------------------|

Then repeat the intro 2x again.

And then this..

|------------------------------------------------------------------------|
|------------------------------------------------------------------2-----|
|00000000-22222222-4444444444444444-00000000-22222222-444444444444---4-2-|
|------------------------------------------------------------------------|

|------------------------------------------------------------------------|
|------------------------------------------------------------------------|
|0000000-222222222-4444444444442222-0000000000000000-2222222222222222----|
|------------------------------------------------------------------------|

The guitar plays by it self then you come back in.

|--------------------------------|    |------------------------------------|
|--------------------------------|    |------------------------------------|
|-0------2------4444444444442222-| 3x |0000000000000000-222222222222222222-|
|--------------------------------|    |------------------------------------|

Then play the intro 2x again.

And your done (:

comments
We did not receive enough feedback on this tab! Please rate:
print report bad tab
1 2 3 4 5
2 comments total.
0 reply
Devindude123123 175 wrote on December 27 2010, 11:34 am

seems very accurate other than it should be CGCF instead of just a step down, but all the notes are accurate turn that open D note into a 2 on a C

0 reply
farrir1 266 wrote on May 20 2016, 12:34 pm

wrong the tuning is DGCF

I want to post or [tab]
guest
You may want to rate the tab now too:
select rating
Please do not post tabs as comments. Select "correction" instead!