Oops, an error
Loading. Please wait.

A Place Where You Belong Tab

version 2
version 2

Solo

Whole song

Interactive

16,696 views 9 this week
4 commentsread comments
1 2 3 4 5
accurate
x 7
add to favorites
launch autoscroll
font size
0
reset
how to read this tab
guitar tuner
Autoscroll
slow
fast
+/-
esc
set tempo
stop
Help us to improve Ultimate-Guitar.com Take our survey!
×
Author
Difficulty
Tuning
advanced
C G C F A D
Bullet For My Valentine: A place where you belong. Both solos.
Tab by: Jordan Rupert (Rockgod_200)

I spent a couple of hours learning these by ear and created my own tabs that are perfect. 
I don't like the other tabs. At all. 

h = hammer-on
p = pull-off
t = tap
b = bend to the note after the "b"
r = release bend
/ = slide down the neck
~ = tremelo (hold note)
. = palm mute

First solo in the song:

D]------------------------------------------------------------------------------|
A]---------------------9--------------12--------------------12~--12--------12b14|
F]---------------9-----11b15-11-9-8-9----9-8-9-8-----9-11-8-13~----13p11--------|
C]-14/-11-11-9h11---11~--------------------------9-11--------------------14-----|
G]-14/--------------------------------------------------------------------------|
C]-14/--------------------------------------------------------------------------|
       .  .
D]---------------------------------------------------------------------------|
A]-14p12h14-t19p14p12h14p12--------------------------------------------------|
F]-------------------------h13p11h13-t16p13p11h13p11-------------------------|
C]--------------------------------------------------h14p13h14-t21p14p13h14p13|
G]---------------------------------------------------------------------------|
C]---------------------------------------------------------------------------|

D]--------------------------------------------------------|
A]--------------------------------------------------------|
F]--------------------------------------------------------|
C]-11p9h11-t14p11p9h11-tp11~------------------------------|
G]--------------------------------------------------------|
C]--------------------------------------------------------|

End first solo.



Second solo:

D]--------------------------------------------------------------------------------|
A]---17--14--16--16b17~--16b17r16-14-16~--16b17r16-14-16~--16b17r16-14------------|
F]-13--13--13--13------------------------------------------------------16~--------|
C]--------------------------------------------------------------------------------|
G]--------------------------------------------------------------------------------|
C]--------------------------------------------------------------------------------|

D]--------------------------------------------------------------------------|
A]---------------16b17~--16b17r16-19b21~--16b17r16-14-16~--16b17r16-14------|
F]--------------------------------------------------------------------16----|
C]-16b17r16-14~-------------------------------------------------------------|
G]--------------------------------------------------------------------------|
C]--------------------------------------------------------------------------|

D]---------------------------------------|
A]-16------------------------------------|
F]---16--------16------------------------|
C]-----16-14~----16-14-13b14r13~---------|
G]---------------------------------------|
C]---------------------------------------|

D]--------------------------------9--9-12-9--9-------------|
A]--------------------9--9-12-9-12-12------12-12-9---------|
F]--------9--9-11-9-11-11----------------------------------|
C]-11-9-11-11----------------------------------------------|
G]---------------------------------------------------------|
C]---------------------------------------------------------|
    . .  .  .. .  .  .  .      

D]-14p9-12p9----14p9-12p9----14p9-12p9----14p9-12p9----14p9-12p9----14p9-|
A]----------12p9---------12p9---------12p9---------12p9---------12p9-----|
F]-----------------------------------------------------------------------|
C]-----------------------------------------------------------------------|
G]-----------------------------------------------------------------------|
C]-----------------------------------------------------------------------|

D]-16p12-14p12-----16p12-14p12-----16p12-14p12-----16p12-14p12-----------|
A]------------14p12-----------14p12-----------14p12-----------14p12------|
F]-----------------------------------------------------------------------|
C]-----------------------------------------------------------------------|
G]-----------------------------------------------------------------------|
C]-----------------------------------------------------------------------|

D]-16p12-14p12-----14p12-19b12~---|
A]------------14p12---------------|
F]--------------------------------|
C]--------------------------------|
G]--------------------------------|
C]--------------------------------|

End solo.

The tapping in solo #1 sounds like it's about 99%.
The rest is 100% perfect
Solo #2 is 100%.

Questions or comments? Email me at Firegod_2006@yahoo.com
Or just comment on here. 
Suggest correction
comments
print report bad tab
4 comments total. Showing first comments.
+1 reply
Dabeastvader 134 wrote on May 28 2010, 03:57 pm

good tab main
5*

+1 reply
Dimonaft 339 wrote on August 20 2010, 07:00 am

/lol!
D]-16p12-14p12-----14p12-19b12~---|
A]------------14p12---------------|
F]--------------------------------|
C]--------------------------------|
G]--------------------------------|
C]--------------------------------|

D]-16p12-14p12-----14p12-19b21~---|
A]------------14p12---------------|
F]--------------------------------|
C]--------------------------------|
G]--------------------------------|
C]--------------------------------|

0 reply
travisa420 10 wrote on October 30 2012, 12:26 pm

sorry but tone wise this solo is almost all wrong

guest
You may want to rate the tab now too:
select rating
Wanna post a correction for this tab? Suggest correction