Oops, an error
Loading. Please wait.

A Place Where You Belong Tab

version 1
version 1

Whole song

Interactive

86,772 views 111 this week
11 commentsread comments
1 2 3 4 5
x 13
add to favorites
launch autoscroll
font size
0
reset
how to read this tab
guitar tuner
Autoscroll
slow
fast
+/-
esc
set tempo
stop
Help us to improve Ultimate-Guitar.com Take our survey!
×
Author
Difficulty
Tuning
intermediate
C G C F A D
Band: Bullet for my Valentine
Album: Fever
Song: A place Where You Belong
Tuning: CGCFAD

***I only tabbed guitar 1***


[Intro Part 1] 

(Clean)***One time all the way through; play each twice***

D|--------0--------0-------0---|      |-------0---------0-------0--------|
A|-----4---4-4-------4-------4-|      |----4----4-4-------4-------4------|
F|----4-4---4----4-------4-----|      |---4-4----4----4-------4----------|
C|-----------------------------|      |----------------------------------|
G|--4----------4-------2-------|      |-0-----------0--------2-----------|
C|-----------------------------|(x2)  |----------------------------------|(x2)


[Intro Part 2] (Distorted) (x2)

D|-------------------------------------------------------------------|
A|------------5/4---------5/4-----5/4------------5/4----------5/4----|
F|----------------4\6--------------------------------4\6-------------|
C|----------------------6-------6---------------------------6--------|
G|--4-2-2-4-2---------4-------4--------4-2-2-4-2----------4----------|
C|-------------------------------------------------------------------|
    . . . . .         . .     . .      . . . . .          . .

D|--------------------------------------------------------------------|
A|-----5/4------------------------------------------------------------|
F|----------8-8-8-9-9-9-8-8-8-9-9-9-9-9-9-11-11-13--13--13--13--13--13|
C|---6------x-x-x-x-x-x-x-x-x-x-x-x-x-x-x-x--x--x---x---x---x---x---x-|
G|-4--------6-6-6-7-7-7-6-6-6-7-7-7-7-7-7-9--9--11--11--11--11--11--11|
C|--------------------------------------------------------------------|
   . .

D|---------------------------------|
A|---------------------------------|
F|-13--13--11-11-11-11-11-11-11-11-|
C|-x---x---x--x--x--x--x--x--x--x--|
G|-11--11--9--9--9--9--9--9--9--9--|
C|---------------------------------|


[Verse Part 1] (Clean) (x5)

D|-----------------------------------|
A|-------4\5-----------4\5-----------|
F|-----4-------------4---------------|
C|---6-------7-----6-------7---(7)\9-|
G|-4---------7~--4---------7~--(7)\9-|
C|-----------7-------------7---(7)\9-|
   . . .         . . .


[Verse Part 2] (Clean) (x4) ***Let ring throughout***

                    (x3)              (x4)
D|-----------------|-----------------|
A|---------4\5-----|-----5/4-----5/4-|
F|-----4-------4\6-|-----------------| thee entire verse
C|---6---4---------|---6-------6-----|(just listen if confused)
G|-4---------------|-4-------4-------|
C|-----------------|-----------------|


[Bridge] (Clean) (x2)

D|---------------|
A|-------4\5-----|
F|-----4-----4\6-|
C|---6-----------|
G|-4-------------|
C|---------------|


[Outro 1] (Distorted) (x1)

D|------------------------------------------------------------------|
A|---------------------8b--9-------12---------------7----7b-12------|
F|---------4-6-9-8-6~-(6)----9-8-9----9-8-9-8---6-9---9-(9)----11-9-|
C|-------6------------------------------------9---------------------|
G|-11/-4------------------------------------------------------------|
C|------------------------------------------------------------------|
       . . .

D|----------------------T----------------T--------------------------|
A|---14~-(14)h17p14h17-19-17p14-12p9h12-14-12p9---------------------|
F|-------------------------------------------------------T----------|
C|-11-------------------------------------------14p9h14-16-14p9h14p9|
G|------------------------------------------------------------------|
C|------------------------------------------------------------------|

D|------------------------------------|
A|------------------------------------|
F|---------------T--------------------|
C|-h14p9-13p9h13-14-13p9h13p9h13p9-11~|
G|------------------------------------|
C|------------------------------------|


[Solo] (Distorted)

D|---11-9-11-12-11b-9-11~-11b-911-11b-9-7------12-11b-9-16~-11b-9-11|
A|-9---9-9--------------------------------7b-5----------------------|
F|------------------------------------------------------------------|
C|------------------------------------------------------------------|
G|------------------------------------------------------------------|
C|------------------------------------------------------------------|

D|-11b-9-7-12--------------------------------------------------------|
A|------------12-10-9~--12-10-9-7~-----------------------------------|
F|--------------------------------------------------11-9-11-13-11-13-|
C|---------------------------------11-9-11-14-11-14------------------|
G|-------------------------------------------------------------------|
C|-------------------------------------------------------------------|
                                   .  .  . .  .  .  .  .  .  .  .  .

D|-------------------------------|-PHT----FHT----FHT---|
A|----------14-12-14-17-16-12-14~|--19-12-17--12-14-12-|
F|-16-13-16----------------------|---------------------|
C|-------------------------------|---------------------|
G|-------------------------------|---------------------|
C|-------------------------------|---------------------|(x5)
   .  .  .

D|-PHT----FHT----FHT-|       |-22~-|
A|-22--14-19--14-17--|       |-----|
F|-------------------|       |-----|
C|-------------------|       |-----|
G|-------------------|       |-----|
C|-------------------|(x6)   |-----|


[Outro 2 Part 1] (Distorted) (x3)

D|--------------------------------------------------------|
A|-------------------------------4\5-------------4\5------|
F|--------------------------4--------6/4-----4------6/4---| 
C|-7--7--7-7--9--9--9-9---6----------------6--------------|
G|-7--7--7-7--9--9--9-9--4---------------4----------------|
C|-7--7--7-7--9--9--9-9-----------------------------------|


[Outro 2 Part 2] (Distorted) (x1)

                                            . . .
D|--------------------------------------------------|
A|--------------------------------------------------|
F|--------------------------------------------------|
C|-7--7--7-7--7-7--7-7-7-7--4--4--4-4--4-4--4-4-4-4-|
G|-7--7--7-7--7-7--7-7-7-7--2--2--2-2--2-2--2-2-2-2-|
C|-7--7--7-7--7-7--7-7-7-7--2--2--2-2--2-2--2-2-2-2-|


[End Riff] (Distorted) (x1)

D|---------------|
A|---------------|
F|---------------|
C|-11x-11x-9-11/-|
G|-11x-11x-9-11/-|
C|-11x-11x-9-11/-|


Song Order or Road Map:

-Intro part 1 (x1)
-Intro part 2 (x2)
-Verse part 1 (x5)
-Verse part 2 (x4)
-Bridge (x2)
-Outro 1 (x1)
-Verse part 1 (x5)
-Verse part 2 (x4)
-Bridge (x2)
-Intro part 2 (x2)
-Solo (x1)
-Verse 1 (x1)
-Outro 2 part 1 (x3)
-Outro 2 part 2 (x1)
-Intro part 2 (x2)
-End Riff (x1)




************************************

| .   palm mute
| /   slide down
| \   slide up
| b   bend
| h   hammer on
| p   pull off
| FHT fret hand tap
| PHT pick hand tap
| ~   let ring
| x   dead string
| T   tap string

************************************
Suggest correction
comments
print report bad tab
11 comments total. Showing first comments.
0 reply
iamghost 807 May 10, 2010 08:33 AM

a little hard to read, but very, very good. kudos.

0 reply
royturner23 1,507 May 10, 2010 11:14 AM

verse, intro... it does not seem right. its just the way you tabbed it, its wrong. its not sliding the notes. its by hammering them on. its clearly easy to hear that when the verse starts. you know what.... never mind. you figure out your own mistakes.

0 reply
guitarguitarx2 114 May 10, 2010 05:26 PM

@royturner23, then how wud u put the intro?

guest
You may want to rate the tab now too:
select rating
Wanna post a correction for this tab? Suggest correction