Oops, an error
Loading. Please wait.

A Place Where You Belong Tab

version 2
version 2

Intro

Solo

Whole song

Interactive

60,974 views 105 this week
7 commentsread comments
1 2 3 4 5
excellent!
x 21
add to favorites
launch autoscroll
font size
0
reset
how to read this tab
guitar tuner
Tab Pro tools
  • play this tab
  • loop segment
  • change instrument
  • show fretboard
  • metronome
Autoscroll
slow
fast
+/-
esc
set tempo
stop
Contributor
Band: Bullet For My Valentine
Album: Fever (2010)
Song: A Place Where You Belong
Tuning: CGCFAD

(Intro) *a little distortion*
D|-----0------0---0------0------0---0------0------0---0------0---(0)-|
A|---4--4-4----4---4---4--4-4----4---4---4--4-4----4---4---4--4-4(4)-|
F|--4-4--4---4---4----4-4--4---4---4----4-4--4---4---4----4-4--4-(4)-|
C|--------------------------------2----------------------------------|
G|-4--------4---2----4--------4--------0--------0---2----0--------2~-|
C|-------------------------------------------------------------------|

"Your Dead!" *Full Distortion* (x2)
D|-----0------0---0------0------0---0---------------------------|
A|---4--4-4----4---4---4--4-4----4---4-444-555-444-555-444-2222-|
F|--4-4--4---4---4----4-4--4---4---4---444-444-444-444-444-4444-|
C|--------------------------------------------------------------|
G|-4--------4---2----4--------4---2-----------------------------|
C|--------------------------------------------------------------|
   ..       ..  ..   ..       ..  ..

D|-44444444-22222222-|
A|-00000000-00000000-|
F|-------------------|
C|-------------------|
G|-------------------|
C|-------------------|

(Verse) *Clean* *Repeat as much needed*
D|*---------0-0------------0---0--*|
A|----4h5----0-0-----4h5----0-0-0--|
F|---4----2-----2---4----2-------2-|
C|--6-----2--------6-----2---------|
G|-4------0-------4------0---2-----|
C|*-------------------------------*|
   ...            ...

(Chorus) "Too late, too late..."
D|-----0-------0-------0------0---0------0-------0-------0------0---0--|
A|---4--4-4--4--4-4--4--4-4----4---4---4--4-4--4--4-4--4--4-4----4---4-|
F|--4-4--4--4-4--4--4-4--4---4---4----4-4--4--4-4--4--4-4--4---4---4---|
C|------------------------------------------------------------2---2----|
G|-0-------2-------4--------4---2----0-------2-------4-----------------|
C|---------------------------------------------------------------------|

D|-----0-------0-------0------0---0------0-------0-------0------|
A|---4--4-4--4--4-4--4--4-4----4---4---4--4-4--4--4-4--4--4-4---|
F|--4-4--4--4-4--4--4-4--4---4---4----4-4--4--4-4--4--4-4--4----|
C|--------------------------------------------------------------|
G|-0-------2-------4--------4---2----0-------0-------2-------2~-|
C|--------------------------------------------------------------|

(Solo 1)
D|----------------------------------------------------------------|
A|--------------12-----------12-------------------12--12------12b-|
F|----4/6/99\6v-11b-11p9-8-9----9-8h9p8----9-11-9-11b---11rp9-----|
C|---6---------------------------------9/11-----------------------|
G|-\4-------------------------------------------------------------|
C|----------------------------------------------------------------|
    ...

D|-9h12p9h12-t14-12p9h12p9-----------------------------------------------|
A|------------------------9h12p9h12-t14-12p9h12p9------------------------|
F|-----------------------------------------------9h11p9h11-t13-11p9h11p9-|
C|-----------------------------------------------------------------------|
G|-----------------------------------------------------------------------|
C|-----------------------------------------------------------------------|

D|-----------------------------|
A|-----------------------------|
F|-----------------------------|
C|-9h13p9h13-t14-13p9h13p9h11~-|
G|-----------------------------|
C|-----------------------------|

*Repeat Verse*

*Repeat Chorus*

(Bridge) "Will you wait for me..." (x2)
D|-----0------0---0------0------0---0---------------------------|
A|---4--4-4----4---4---4--4-4----4---4-444-555-444-555-444-2222-|
F|--4-4--4---4---4----4-4--4---4---4---444-444-444-444-444-4444-|
C|--------------------------------------------------------------|
G|-4--------4---2----4--------4---2-----------------------------|
C|--------------------------------------------------------------|
   ..       ..  ..   ..       ..  ..

D|-44444444-22222222-|
A|-00000000-00000000-|
F|-------------------|
C|-------------------|
G|-------------------|
C|-------------------|

(Solo 2)
D|---------------------------------------------------------------|
A|----16--14--16--16b-16br-14-16v--16br-14-16v-16br-14-----------|
F|-/13--13--13--13------------------------------------16---------|
C|------------------------------------------------------16br-14v-|
G|---------------------------------------------------------------|
C|---------------------------------------------------------------|

D|-------------------------------------------------------------------------|
A|-16b-16br-14-19b--16br-14-16v-16br-14------------------------------------|
F|-------------------------------------16v-18-16-14-13--16-14-13-11-(11)br-|
C|-------------------------------------------------------------------------|
G|-------------------------------------------------------------------------|
C|-------------------------------------------------------------------------|

D|---------------------------------9--9-12p9-----|
A|---------------------9--9-12-9-12-12------12p9-|
F|---------9--9-11-9-11-11-----------------------|
C|-11-9-11--11-----------------------------------|
G|-----------------------------------------------|
C|-----------------------------------------------|
   .  . .   .      . .  . . .  . .     

D|-14p9-12p9------14p9-12p9------14p9-12p9-----14p9-12p9------14p9-12p9-|
A|-----------12p9-----------12p9----------12p9-----------12p9-----------|
F|----------------------------------------------------------------------|
C|----------------------------------------------------------------------|
G|----------------------------------------------------------------------|
C|----------------------------------------------------------------------|

D|-16p12-14p12-------16p12-14p12-------16p12-14p12-------16p12-14p12------|
A|-------------14p12-------------14p12-------------14p12------------14p12-|
F|------------------------------------------------------------------------|
C|------------------------------------------------------------------------|
G|------------------------------------------------------------------------|
C|------------------------------------------------------------------------|

D|-16p12-14p12-19b~-|
A|------------------|
F|------------------|
C|------------------|
G|------------------|
C|------------------|

(Post-Chorus) *Clean*
D|----------0-0-------------|
A|----4h5----0-0-----4h5----|
F|---4----2-----2---4----2~-|
C|--6-----2--------6-----2~-|
G|-4------0-------4------0~-|
C|--------------------------|
   ...

(Chorus) "Too late, too late..." *Distortion* *Reapeat as much needed*
D|*--------------------------*|------|
A|-----------4h5p4-----4h5p4--|------|
F|-2--4----4------4--4------4-|-2--4-|
C|-2--4---6-6-------6-6-------|-2--4-|
G|-0--2--4---------4----------|-0--2-|
C|*--------------------------*|------|
         .. .      .. .

(Outro) (x2)
D|-----0------0---0------0------0---0---------------------------|
A|---4--4-4----4---4---4--4-4----4---4-444-555-444-555-444-2222-|
F|--4-4--4---4---4----4-4--4---4---4---444-444-444-444-444-4444-|
C|--------------------------------------------------------------|
G|-4--------4---2----4--------4---2-----------------------------|
C|--------------------------------------------------------------|
   ..       ..  ..   ..       ..  ..

D|-44444444-22222222-|
A|-00000000-00000000-|
F|-------------------|
C|-------------------|
G|-------------------|
C|-------------------|

"A place where you belong!"
D|----------|
A|----------|
F|-6-6-4-6\-|
C|-6-6-4-6\-|
G|-4-4-2-4\-|
C|----------|

END

Legend
.-Palm Mute
~-Ring Out
v-Viabrato
h-Hammer-on
p-Pull off
t-Tap
/-Slide up
\-Slide down`
comments
print report bad tab
7 comments total. Showing first comments.
+2 reply
Dabeastvader wrote on June 28 2010, 04:48 pm

awesome tabs man :D

-2 reply
Dimonaft wrote on August 20 2010, 03:15 am

It should be so:

D|-16p12-14p12-21b~-|
A|------------------|
F|------------------|
C|------------------|
G|------------------|
C|------------------|

0 reply
bfmvwakingthed wrote on December 28 2010, 02:35 am

thanks man !! awesome tabs and so easy to play :D

I want to post or [tab]
guest
You may want to rate the tab now too:
select rating
Please do not post tabs as comments. Select "correction" instead!