Oops, an error
Loading. Please wait.

A Place Where You Belong Tab

version 3
version 3

Whole song

Interactive

8,347 views 21 this week
1 commentread comment
1 2 3 4 5
excellent!
x 5
add to favorites
launch autoscroll
font size
0
reset
how to read this tab
guitar tuner
Autoscroll
slow
fast
+/-
esc
set tempo
stop
Help us to improve Ultimate-Guitar.com Take our survey!
×
Contributor
Difficulty
Tuning
royturner23 3,160
intermediate
C G C F A D
A Place Where You Belong
Bullet For My Valentine
Fever
Drop C- CGCFAD


-Intro-
Matt
D|---------0-----------0-------0-----------0-----------0-------0---|
A|-----4-----4---4-------4-------4-----4-----4---4-------4-------4-|
F|---4---4-----4-----4-------4-------4---4-----4-----4-------4-----|
C|---------------------------------------------------------2-------|
G|-4---------------4-------2-------4---------------4---------------|
C|-----------------------------------------------------------------|

D|---------0-----------0-------0-----------0--------------|
A|-----4-----4---4-------4-------4-----4-----4---4~~~~~~~~|
F|---4---4-----4-----4-------4-------4---4-----4~~~~~~~~~~|
C|--------------------------------------------------------|
G|-0---------------0-------2-------0---------------2~~~~~~|
C|--------------------------------------------------------|

Matt
D||----------0-----------0-------0-----------0-----------0-------0---|
A||o-----4-----4---4-------4-------4-----4-----4---4-------4-------4-|
F||----4---4-----4-----4-------4-------4---4-----4-----4-------4-----|
C||----------------------------------------------------------2-------|
G||o-4---------------4-------2-------4---------------4---------------|
C||------------------------------------------------------------------|
     - -   -     -   - -     - -     - -   -     -   - -     - -
Padge
D||------------------------------------------------------------------|
A||o-----------------------------------------------------------------|
F||--------6---6~~~~~~-----6~~-----2~~-------6---6~~~~~-----6~-----9-|
C||--6-6-6-6-6-6~~~~~~-6-6-6~~-2-2-2~~-6-6-6-6-6-6~~~~~-6-6-6~-9-9-9-|
G||o-4-4-4-4-4-4~~~~~~-4-4-4~~-0-0-0~~-4-4-4-4-4-4~~~~~-4-4-4~-7-7-7-|
C||------------------------------------------------------------------|
     - - -   -         - -     - -     - - -   -        - -    - -
"YOUR DEEEEEEEEAD!!!"

Matt
D|---------------------------------------4-4-4-4-4-4-4-4-2-2-2-2-2-2-2-2--||
A|-4-4-4-5-5-5-4-4-4-5-5-5-4-4-4-2-2-2-2-0-0-0-0-0-0-0-0-0-0-0-0-0-0-0-0-o||
F|-4-4-4-4-4-4-4-4-4-4-4-4-4-4-4-4-4-4-4----------------------------------||
C|------------------------------------------------------------------------||
G|-----------------------------------------------------------------------o||
C|------------------------------------------------------------------------||
Padge
D|------------------------------------------------------------------------||
A|-----------------------------------------------------------------------o||
F|-2-2-2-2-2-2-2-2-2-2-2-2-2-2-2-2-4-4-4-4-4-4-4-4-4-4-4-4-4-4-4-4--------||
C|-2-2-2-2-2-2-2-2-2-2-2-2-2-2-2-2-4-4-4-4-4-4-4-4-4-4-4-4-4-4-4-4-6-6-6--||
G|-0-0-0-0-0-0-0-0-0-0-0-0-0-0-0-0-2-2-2-2-2-2-2-2-2-2-2-2-2-2-2-2-4-4-4-o||
C|------------------------------------------------------------------------||
                                                                   - - -

Padge
D|--------------0---0------------------0-------0-----|
A|-------4h5------0---0---------4h5------0---0---0---|
F|-----4-----2~~--------2-----4-----2~~------------2-|
C|---6-------2~~------------6-------2~~--------------|
G|-4---------0~~----------4---------0~~----2---------|
C|---------------------------------------------------|
   - - -                  - - -

-Verse-
D||---------------0---0------------------0-------0------||
A||o-------4h5------0---0---------4h5------0---0---0---o||
F||------4-----2~~--------2-----4-----2~~------------2--||
C||----6-------2~~------------6-------2~~---------------||
G||o-4---------0~~----------4---------0~~----2---------o||
C||-----------------------------------------------------||x4
     - - -                  - - -
-"Your body's cold, hope is lost, I can't let go...
-Can I die with you so we can never grow old...
-Cut the ties, with this note you left behind...
-As I read the words, I hear you telling me why"


-Chorus-
Matt & Padge
D|---------0---------------0---------------0-----------0-------0---|
A|-----4-----4---4-----4-----4---4-----4-----4---4-------4-------4-|
F|---4---4-----4-----4---4-----4-----4---4-----4-----4-------4-----|
C|-----------------------------------------------------------------|
G|-0---------------2---------------4---------------4-------2-------|
C|-----------------------------------------------------------------|
"Too late, too late, I never said goodbye...

D|---------0---------------0---------------0-----------0-------0---|
A|-----4-----4---4-----4-----4---4-----4-----4---4-------4-------4-|
F|---4---4-----4-----4---4-----4-----4---4-----4-----4-------4-----|
C|-------------------------------------------------2-------2-------|
G|-0---------------2---------------4-------------------------------|
C|-----------------------------------------------------------------|
...Too late, too late, can't even ask you why...

D|---------0---------------0---------------0-----------0-------0---|
A|-----4-----4---4-----4-----4---4-----4-----4---4-------4-------4-|
F|---4---4-----4-----4---4-----4-----4---4-----4-----4-------4-----|
C|-----------------------------------------------------------------|
G|-0---------------2---------------4---------------4-------2-------|
C|-----------------------------------------------------------------|
...And now, I'm wasting, away in my own misery...

D|---------0---------------0---------------0---------|
A|-----4-----4---4-----4-----4---4-----4-----4---4---|
F|---4---4-----4-----4---4-----4-----4---4-----4-----|
C|---------------------------------------------------|
G|-0---------------0---------------2---------------2-|
C|---------------------------------------------------|
...I hope you've finally gone, to A Place Where You Belong"


-Solo-
Matt                                      T
D|---------------------------------------------------------------------------------|
A|-------------5--------12~~~~~----------------------------------12--12-----12b====|
F|---------4h6---6~~~~--11b====r-11\9-8-9-16-9-8h9p8------9-11-9-11b====r-9--------|
C|-------6-------------------------------------------9/11--------------------------|
G|-----4---------------------------------------------------------------------------|
C|-14\-----------------------------------------------------------------------------|
       - -
             T                      T                      T                      T
D|9h12p9h12h14p12p9h12p9------------------------------------------------------------------------|
A|-----------------------9h12p9h12h14p12p9h12p9-------------------------------------------------|
F|----------------------------------------------9h11p9h11h13p11p9h11p9--------------------------|
C|---------------------------------------------------------------------9h11p9h11h13p11p9h11p9h11|
G|----------------------------------------------------------------------------------------------|
C|----------------------------------------------------------------------------------------------|
-Padge Under Solo-
D|--------------0---0------------------0-------0-----|
A|-------4h5------0---0---------4h5------0---0---0---|
F|-----4-----2~~--------2-----4-----2~~------------2-|
C|---6-------2~~------------6-------2~~--------------|
G|-4---------0~~----------4---------0~~----2---------|
C|---------------------------------------------------|
   - - -                  - - -
D|--------------0---0----------------------|
A|-------4h5------0---0---------4h5--------|
F|-----4-----2~~--------2-----4-----2~~~~~~|
C|---6-------2~~------------6-------2~~~~~~|
G|-4---------0~~----------4---------0~~~~~~|
C|-----------------------------------------|
   - - -                  - - -


-Verse-
Padge
D||---------------0---0------------------0-------0------||
A||o-------4h5------0---0---------4h5------0---0---0---o||
F||------4-----2~~--------2-----4-----2~~------------2--||
C||----6-------2~~------------6-------2~~---------------||
G||o-4---------0~~----------4---------0~~----2---------o||
C||-----------------------------------------------------||x4
     - - -                  - - -
-"My sadness shows, as your name is carved in stone...
-Can't erase the words so the reality grows...
-I wish I died, on that night right by your side...
-So just kill me now and let the good times roll"


-Chorus-
Matt & Padge
D|---------0---------------0---------------0-----------0-------0---|
A|-----4-----4---4-----4-----4---4-----4-----4---4-------4-------4-|
F|---4---4-----4-----4---4-----4-----4---4-----4-----4-------4-----|
C|-----------------------------------------------------------------|
G|-0---------------2---------------4---------------4-------2-------|
C|-----------------------------------------------------------------|
"Too late, too late, I never said goodbye...

D|---------0---------------0---------------0-----------0-------0---|
A|-----4-----4---4-----4-----4---4-----4-----4---4-------4-------4-|
F|---4---4-----4-----4---4-----4-----4---4-----4-----4-------4-----|
C|-------------------------------------------------2-------2-------|
G|-0---------------2---------------4-------------------------------|
C|-----------------------------------------------------------------|
...Too late, too late, can't even ask you why...

D|---------0---------------0---------------0-----------0-------0---|
A|-----4-----4---4-----4-----4---4-----4-----4---4-------4-------4-|
F|---4---4-----4-----4---4-----4-----4---4-----4-----4-------4-----|
C|-----------------------------------------------------------------|
G|-0---------------2---------------4---------------4-------2-------|
C|-----------------------------------------------------------------|
...And now, I'm wasting, away in my own misery...

D|---------0---------------0---------------0---------|
A|-----4-----4---4-----4-----4---4-----4-----4---4---|
F|---4---4-----4-----4---4-----4-----4---4-----4-----|
C|---------------------------------------------------|
G|-0---------------0---------------2---------------2-|
C|---------------------------------------------------|
...I hope you've finally gone, to A Place Where You Belong...


Matt
D||----------0-----------0-------0-----------0-----------0-------0---|
A||o-----4-----4---4-------4-------4-----4-----4---4-------4-------4-|
F||----4---4-----4-----4-------4-------4---4-----4-----4-------4-----|
C||----------------------------------------------------------2-------|
G||o-4---------------4-------2-------4---------------4---------------|
C||------------------------------------------------------------------|
     - -   -     -   - -     - -     - -   -     -   - -     - -
Padge
D||------------------------------------------------------------------|
A||o-----------------------------------------------------------------|
F||--------6---6~~~~~~-----6~~-----2~~-------6---6~~~~~-----6~-----9-|
C||--6-6-6-6-6-6~~~~~~-6-6-6~~-2-2-2~~-6-6-6-6-6-6~~~~~-6-6-6~-9-9-9-|
G||o-4-4-4-4-4-4~~~~~~-4-4-4~~-0-0-0~~-4-4-4-4-4-4~~~~~-4-4-4~-7-7-7-|
C||------------------------------------------------------------------|
     - - -   -         - -     - -     - - -   -        - -    - -
-Will you wait for me? Will I see you on the other...
-Will you come to me? Will you take me to the other...

Matt
D|---------------------------------------4-4-4-4-4-4-4-4-2-2-2-2-2-2-2-2--||
A|-4-4-4-5-5-5-4-4-4-5-5-5-4-4-4-2-2-2-2-0-0-0-0-0-0-0-0-0-0-0-0-0-0-0-0-o||
F|-4-4-4-4-4-4-4-4-4-4-4-4-4-4-4-4-4-4-4----------------------------------||
C|------------------------------------------------------------------------||
G|-----------------------------------------------------------------------o||
C|------------------------------------------------------------------------||
Padge
D|------------------------------------------------------------------------||
A|-----------------------------------------------------------------------o||
F|-2-2-2-2-2-2-2-2-2-2-2-2-2-2-2-2-4-4-4-4-4-4-4-4-4-4-4-4-4-4-4-4--------||
C|-2-2-2-2-2-2-2-2-2-2-2-2-2-2-2-2-4-4-4-4-4-4-4-4-4-4-4-4-4-4-4-4-6-6-6--||
G|-0-0-0-0-0-0-0-0-0-0-0-0-0-0-0-0-2-2-2-2-2-2-2-2-2-2-2-2-2-2-2-2-4-4-4-o||
C|------------------------------------------------------------------------||
                                                                   - - -
-Side? You won't have to wait too long, yeah yeah...
-Side? 'Cause here I don't belong"


-Solo-
Padge
D|------------------------------------------------------------------------------------------|
A|-----16----14----16----16b======r-16br-14-16~~~~~~-16br-14-16~~~~-16br-14-----------------|
F|-/13----13----13----13----------------------------------------------------16--------------|
C|-----------------------------------------------------------------------------16br-14~~~~~~|
G|------------------------------------------------------------------------------------------|
C|------------------------------------------------------------------------------------------|

D|-------------------------------------------------------------------------------------|
A|-16b======r-16br-14-19b======r-16br-14-16~~~~~~-16br-14-12-14-12-10-9~~~-12-10-9-7~~~|
F|-------------------------------------------------------------------------------------|
C|-------------------------------------------------------------------------------------|
G|-------------------------------------------------------------------------------------|
C|-------------------------------------------------------------------------------------|

D|---------------------------------------9----12p9------14p9-12p9------14p9-12p9------|
A|------------------------9----9-12-9-12---12------12p9-----------12p9-----------12p9-|
F|---------9----9-11-9-11---11--------------------------------------------------------|
C|-11-9-11---11-----------------------------------------------------------------------|
G|------------------------------------------------------------------------------------|
C|------------------------------------------------------------------------------------|
    - - -    -       - -    -  - -  - -

D|-14p9-12p9------14p9-12p9------14p9-12p9------16p12-14p12-------16p12-14p12-------|
A|-----------12p9-----------12p9-----------12p9-------------14p12-------------14p12-|
F|----------------------------------------------------------------------------------|
C|----------------------------------------------------------------------------------|
G|----------------------------------------------------------------------------------|
C|----------------------------------------------------------------------------------|

D|-16p12-14p12-------16p12-14p12-------16p12-14p12-19b============r|
A|-------------14p12-------------14p12-----------------------------|
F|-----------------------------------------------------------------|
C|-----------------------------------------------------------------|
G|-----------------------------------------------------------------|
C|-----------------------------------------------------------------|
-Matt Under Solo-
D||---------------------------------------------------------||
A||o-------------------------------4h5p4-----------4h5p4---o||
F||--2~~~~~~~~---4~~~~~~~~-----4---------4-----4---------4--||
C||--2~~~~~~~~-2-4~~~~~~~~---6---6-----------6---6----------||
G||o-0~~~~~~~~-0-2~~~~~~~~-4---------------4---------------o||
C||---------------------------------------------------------||x3
               -           - -   -         - -   -
D|-------------------------------------------------------------------------|
A|-------------------------------------------------------------------------|
F|-2-2-2-2-2-2-2-2-2-2-2-2-2-2-2-2-4-4-4-4-4-4-4-4-4-4-4-4-4-4-4-4---------|
C|-2-2-2-2-2-2-2-2-2-2-2-2-2-2-2-2-4-4-4-4-4-4-4-4-4-4-4-4-4-4-4-4-6-6-6-6-|
G|-0-0-0-0-0-0-0-0-0-0-0-0-0-0-0-0-2-2-2-2-2-2-2-2-2-2-2-2-2-2-2-2-4-4-4-4-|
C|-------------------------------------------------------------------------|
                                                                   - - - -

Padge
D|--------------0---0------------------------|
A|-------4h5------0---0---------4h5----------|
F|-----4-----2~~--------2-----4-----2~~~~~~~~|
C|---6-------2~~------------6-------2~~~~~~~~|
G|-4---------0~~----------4---------0~~~~~~~~|
C|-------------------------------------------|
   - - -                  - - -


-Chorus-
Matt & Padge
D||---------------------------------------------------------||
A||o-------------------------------4h5p4-----------4h5p4---o||
F||--2~~~~~~~~---4~~~~~~~~-----4---------4-----4---------4--||
C||--2~~~~~~~~-2-4~~~~~~~~---6---6-----------6---6----------||
G||o-0~~~~~~~~-0-2~~~~~~~~-4---------------4---------------o||
C||---------------------------------------------------------||x3
               -           - -   -         - -   -
-"Too late, too late, I never said goodbye...
-Too late, too late, can't even ask you why...
-And now, I'm wasting, away in my own misery..

D|-------------------------------------------------------------------------|
A|-------------------------------------------------------------------------|
F|-2-2-2-2-2-2-2-2-2-2-2-2-2-2-2-2-4-4-4-4-4-4-4-4-4-4-4-4-4-4-4-4---------|
C|-2-2-2-2-2-2-2-2-2-2-2-2-2-2-2-2-4-4-4-4-4-4-4-4-4-4-4-4-4-4-4-4-6-6-6-6-|
G|-0-0-0-0-0-0-0-0-0-0-0-0-0-0-0-0-2-2-2-2-2-2-2-2-2-2-2-2-2-2-2-2-4-4-4-4-|
C|-------------------------------------------------------------------------|
                                                                   - - - -
...I hope you've finally gone to A Place Where You Belong!"

Matt
D||----------0-----------0-------0-----------0-----------0-------0---|
A||o-----4-----4---4-------4-------4-----4-----4---4-------4-------4-|
F||----4---4-----4-----4-------4-------4---4-----4-----4-------4-----|
C||----------------------------------------------------------2-------|
G||o-4---------------4-------2-------4---------------4---------------|
C||------------------------------------------------------------------|
     - -   -     -   - -     - -     - -   -     -   - -     - -
Padge
D||------------------------------------------------------------------|
A||o-----------------------------------------------------------------|
F||--------6---6~~~~~~-----6~~-----2~~-------6---6~~~~~-----6~-----9-|
C||--6-6-6-6-6-6~~~~~~-6-6-6~~-2-2-2~~-6-6-6-6-6-6~~~~~-6-6-6~-9-9-9-|
G||o-4-4-4-4-4-4~~~~~~-4-4-4~~-0-0-0~~-4-4-4-4-4-4~~~~~-4-4-4~-7-7-7-|
C||------------------------------------------------------------------|
     - - -   -         - -     - -     - - -   -        - -    - -
-"(I!!!) I never said goodbye...
-(I'M WASTING!!!) Away in my own misery...

Matt
D|---------------------------------------4-4-4-4-4-4-4-4-2-2-2-2-2-2-2-2--||-------------|
A|-4-4-4-5-5-5-4-4-4-5-5-5-4-4-4-2-2-2-2-0-0-0-0-0-0-0-0-0-0-0-0-0-0-0-0-o||-------------|
F|-4-4-4-4-4-4-4-4-4-4-4-4-4-4-4-4-4-4-4----------------------------------||-6~-6~-4~~-6\|
C|------------------------------------------------------------------------||-6~-6~-4~~-6\|
G|-----------------------------------------------------------------------o||-4~-4~-2~~-4\|
C|------------------------------------------------------------------------||-------------|
Padge
D|------------------------------------------------------------------------||-------------|
A|-----------------------------------------------------------------------o||-------------|
F|-2-2-2-2-2-2-2-2-2-2-2-2-2-2-2-2-4-4-4-4-4-4-4-4-4-4-4-4-4-4-4-4--------||-6~-6~-4~~-6\|
C|-2-2-2-2-2-2-2-2-2-2-2-2-2-2-2-2-4-4-4-4-4-4-4-4-4-4-4-4-4-4-4-4-6-6-6--||-6~-6~-4~~-6\|
G|-0-0-0-0-0-0-0-0-0-0-0-0-0-0-0-0-2-2-2-2-2-2-2-2-2-2-2-2-2-2-2-2-4-4-4-o||-4~-4~-2~~-4\|
C|------------------------------------------------------------------------||-------------|
                                                                   - - -
                                         -Can't even ask you why...
-I hope you've finally gone to A Place Where You Belong"
Suggest correction new What's this?
You can suggest a correction to this tab. Community and Mods will review your correction and vote to approve or reject it.
comments
print report bad tab
1 comment total.
0 reply
N04Hz_Ark 508 wrote on November 23 2013, 10:09 pm

In the "Will you wait for me? Will I see you on the other side" part, I can't hear any opens. I think the chord should be a B not an A (relative to Drop C). Like this...

Padge
D||------------------------------------------------------------------|
A||o-----------------------------------------------------------------|
F||--------6---6~~~~~~-----6~~-----4~~-------6---6~~~~~-----6~-----9-|
C||--6-6-6-6-6-6~~~~~~-6-6-6~~-4-4-4~~-6-6-6-6-6-6~~~~~-6-6-6~-9-9-9-|
G||o-4-4-4-4-4-4~~~~~~-4-4-4~~-2-2-2~~-4-4-4-4-4-4~~~~~-4-4-4~-7-7-7-|
C||------------------------------------------------------------------|
- - - - - - - - - - - - - - - -

I don't know.. I may be wrong but thats what it sounds like to me... ??

guest
You may want to rate the tab now too:
select rating
Please do not post tabs as comments. Select "correction" instead!