Oops, an error
Loading. Please wait.

All These Things I Hate Revolve Around Me Bass Tab

version 1
version 1

Whole song

31,548 views 3 this week
9 commentsread comments
1 2 3 4 5
x 27
add to favorites
launch autoscroll
font size
0
reset
guitar tuner
Autoscroll
slow
fast
+/-
esc
set tempo
stop
Help us to improve Ultimate-Guitar.com Take our survey!
×
Author
Difficulty
Tuning
novice
C G C F A D
-------------------------------------------------------------------------------
             All these things i hate - Bullet for my valentine
-------------------------------------------------------------------------------
Tabbed by:Up_in_flames
Email:sk8in_maniac@hotmail.com

Tuning:CGCF

Guitar intro

The bass in this song doesnt come in until (0:47)


chorus                              x 2
F|-------------------------------------|
C|-------------------------------------|
G|-------------------------------------|
C|--6666-----4444----222-1-222-444-----|


Pre verse
F|----------------------|
C|----------------------|
G|----------------------|
C|--66--66--66--6\0~----|


Verse                          x 4
F|--------------------------------|
C|--------------------------------|
G|--------------------------------|
C|---666---444---2~---11--22------|


pre chorus
F|-----------------------------|
C|-----------------------------|
G|-----------------------------|
C|---6b7~r6--------------------|
(this bit is right at the end)

chorus x 4


Bridge 1
F|---------------------------------------------------------------------------|
C|---------------------------------------------------------------------------|
G|---------------------------------------------------------------------------|
C|-66--66--66--66---2~--4~---66--66--66--66---2~--4~-------------------------|

F|--------------------------------------------------------------------------|
C|--------------------------------------------------------------------------|
G|--------------------------------------------------------------------------|
C|-66--66--666666--66---2~--4~---66--66--666666--66---2~--4~---6b6b6b6b6b6b-|


Bridge 2                    x 4
F|-----------------------------||----------------------------------|
C|-----------------------------||----------------------------------|
G|-----------------------------||----------------------------------|
C|---2222--------4-4/6-6~------||--2~------------------11111111----|

chorus x 4 (third time is changed, see below)

F|----------------------------------------|
C|----------------------------------------|
G|----------------------------------------|
C|--6666b7r6-----4444----222-1-222-444----|


outro
F|---------------------------------------|
C|---------------------------------------|
G|---------------------------------------|
C|--66--66--66--66---2--4--6/0~----------|


thnx and rate it well! up_in_flames


| /  slide up
| \  slide down
| h  hammer-on
| p  pull-off
| ~  vibrato
| +  harmonic
| x  Mute note
===============================================================================
Suggest correction
comments
print report bad tab
9 comments total. Showing first comments.
0 reply
T.B.K. 97 Nov 27, 2006 02:26 PM

hm i thing you are missing 2nd pre - chorus....

0 reply
vision_blurred 51 May 05, 2007 01:51 AM

good job

0 reply
Lucas69camaro 10 Nov 22, 2007 03:25 PM

What do the B's and R's stand for, I'd really like to know so I can play this song completely and correctly!

guest
You may want to rate the tab now too:
select rating
Wanna post a correction for this tab? Suggest correction