Oops, an error
Loading. Please wait.

All These Things I Hate Revolve Around Me Bass Tab

version 2
version 2

Whole song

4,340 views 6 this week
no commentswrite comment
1 2 3 4 5
excellent!
x 3
add to favorites
launch autoscroll
font size
0
reset
guitar tuner
Tab Pro tools
  • play this tab
  • loop segment
  • change instrument
  • show fretboard
  • metronome
×
Best way to learn
"All These Things I Hate Revolve Around Me"
Autoscroll
slow
fast
+/-
esc
set tempo
stop
Contributor
Difficulty
Tuning
novice
D A D G B E
Song title: All These Things I Hate
Artist: Bullet For My Valentine
Album: Fever
Tabbed by: Slappytime
Tuning: Drop D (GDAD)

NOTICE: all rythms like -44-4-4- stop immediately, so after the last 4 mute the note

i hope you like it


Chorus (0:45)
G|-------------------------------------------------|    |---------------------------------|
D|-------------------------------------------------|    |---------------------------------|
A|---------------------------------4-4-------------| 2X |---------------------------------|
D|-44-4-4------22-2-2------00-0-00-----00-0-02-2-2-|    |-44----44----44----4-------------|


Verse
G|-----------------------------------------------------------------|
D|-----------------------------------------------------------------|
A|-----------------------------------------------------------------| 2X
D|-44-44444------22-22222------00-00000------00-00000--------------|
   +             +      +
G|-----------------------------------------------------------------------|
D|-----------------------------------------------------------------------|
A|-----------------------------------------------------------------------|
D|-2222222222222244444442222222000000000000004444444222222200000000000000|

------------------------------------------|
------------------------------------------|
----------------------------4-------------|
4444444222222200000000000000--------------|


Chorus
G|-------------------------------------------------|
D|-------------------------------------------------|
A|---------------------------------4-4-------------| 4X
D|-44-4-4------22-2-2------00-0-00-----00-0-02-2-2-|


Bridge
G|---------------------------------|
D|---------------------------------|
A|---------------------------------| 2X
D|-44----44----44----44----0---2---|

G|---------------------------------|    |-------------|
D|---------------------------------|    |-------------|
A|---------------------------------| 2X |-------------|
D|-44----44----444444----440---2---|    |4b4b4b4b4b4b-|

G|------------------------|    |--------------------------------|
D|------------------------|    |--------------------------------|
A|------------------------| 4X |--------------------------------|
D|-00-0-0-----2-22-24-4-4-|    |-0~------------------0000000000-|


Chorus
G|-------------------------------------------------|
D|-------------------------------------------------|
A|---------------------------------4-4-------------|
D|-444444------2222222-----00-0-00-----00-0-02-2-2-|

G|-------------------------------------------------|
D|-------------------------------------------------|
A|---------------------------------4-4-------------|
D|-44-4-4------22-2-2------00-0-00-----00-0-02-2-2-|

G|-------------------------------------------------|
D|-------------------------------------------------|
A|---------------------------------4-4-------------|
D|-4444444b----22-2-2------00-0-00-----00-0-02-2-2-|

G|-------------------------------------------------|
D|-------------------------------------------------|
A|---------------------------------4-4-------------|
D|-44-4-4------22-2-2------00-0-00-----00-0-02-2-2-|


Outro
G|-------------------------------------|
D|-------------------------------------|
A|-------------------------------------|
D|-44----44----44----44----0---2---4/0-|

Please comment and rate :)
comments
We did not receive enough feedback on this tab! Please rate:
print report bad tab
1 2 3 4 5
I want to post or [tab]
guest
You may want to rate the tab now too:
select rating
Please do not post tabs as comments. Select "correction" instead!